Acordes de Guitarra » J »Joan Sebastian » Te irá mejor sin mí (Tab)

Te irá mejor sin mí
Joan Sebastian

Letras, Acordes y Tabs para Guitarra, Bajo y Ukulele

  •  A F#m D E
                      A
     TE IRA MEJOR SIN MI
                     F#m
    NO QUIERO QUE REGRESES
                 D
    LA CRUDA ES MORAL
               E
    Y LA PAGO CON CRECES
                     A
    TE IRA MEJOR SIN MI
                      F#m
    HASTE UN FAVOR NO VUELVAS
                   D
    ES LA OPORTUNIDAD
                   E
    QUE TU VIDA RESUELBAS
           D
    YO NO SOY EL HOMBRE
            E
    
  • A, F#m, D y E
    
    1er Bajeo este va en el Intro:
    
    e------------------------------------
    B------------------------------------
    G------------------------------------
    D------------------------------------
    A-------------------------4----------
    E-0-2-0-2-0-2-----0-2-4-5---5-4-2-4-0
    
    2do Bajeo:
    
    e------------
    B------------
    G------------
    D------------
    A-0-4--------
    E-----5-4-2-0
    
    
  •        A               F#m            D                      E
    e-------------|-----------------|-------------|-----------------------
    B---0/2-0-2---|---0/2-0-2-------|-------------|-----------------------
    G-2---------2-|-2---------2-1---|-------------|-----------------------
    D-------------|---------------4-|-------------|-----------------------
    A-------------|-----------------|-------------|-------0-2-0/2~0---0---
    E-------------|-----------------|-0-2-0-2-0-2-|-0-2-4-----------4-----
    
                    A
    te ira mejor sin mi
                     F#m
    No quiero que regreses
                 D
    La cruda es moral
               E
    Y la pago con creces
    
    e--------------
    B--------------
    G--------------
    
  • +
    ¡Colabora con nosotros!
    Envíanos tu versión de esta canción

Letra de Te irá mejor sin mí
TE IRA MEJOR SIN MI
NO QUIERO QUE REGRESES
LA CRUDA ES MORAL
Y LA PAGO CON CRECES
TE IRA MEJOR SIN MI
HASTE UN FAVOR NO VUELVAS
ES LA OPORTUNIDAD
QUE TU VIDA RESUELBAS
YO NO SOY EL HOMBRE
QUE TU QUIERES
MI PROBLEMA ES BELLO
Y SON MUJERES
TE IRA MEJOR SIN MI
TE IRA MEJOR SIN MI
ENCUENTRA UN HOMBRE BUENO
NO ES POR EXAJERAR
YO SIEMPRE HE SIDO AJENO
TE IRA MEJOR SIN MI
ESPERO QUE LO ENTIENDAS
ME ENCANTA TU MIRAR
PERO ES MEJOR SIN BENDAS
YO NO SOY EL HOMBRE
QUE TU QUIERES
MI PROBLEMA ES BELLO
Y SON MUJERES
TE IRA MEJOR SIN MI
HOOOO
TE IRA MEJOR SIN MI




[Te irá mejor sin mí chords][Te irá mejor sin mí cifra]
© LaCuerda.net · aviso legal · privacidad · es · en · pt · contacto