Acordes de Guitarra » J »Joan Sebastian » Secreto de amor (Tab)

Secreto de amor
Joan Sebastian

Letras, Acordes y Tabs para Guitarra, Bajo y Ukulele

  • Dm                      Gm    C7  
       TE VOY A CAMBIAR EL NOMBRE
                           Dm
       PARA GUARDAR EL SECRETO
                          Gm   A7 
       PORQUE TE AMO Y ME AMAS
                               Dm
       Y A ALGUIEN DEBEMOS RESPETO
    
                            Gm    C7
       TE VOY A CAMBIAR EL NOMBRE
                               Dm
       EN BASE A LO QUE HAS TRAIDO
                           Gm   A7
       AHORA TE LLAMARAS GLORIA
                           Dm
       LO TIENES BIEN MERECIDO
    
                             A7
       Y HEMOS DE DARNOS UN BESO
    
  •    Dm                      Gm    C7
       te voy a cambiar el nombre
                           Dm
       para guardar el secreto
                          Gm   A7
       porque te amo y me amas
                               Dm
       y a alguien debemos respeto
    
                            Gm    C7
       te voy a cambiar el nombre
                               Dm
       en base a lo que has traido
                           Gm   A7
       ahora te llamaras gloria
                           Dm
       lo tienes bien merecido
    
                             A7
       y hemos de darnos un beso
    
  • E|--------------------4---9--8---9--4--5-4--2--4---2--0--2---0---------------|
    B|--------------------5--10--9--10--5--7-5--4--7---4--2--4---2-------5-------|
    G|-------------------------------------------------------------------6-------|
    D|--------1-2-4-6----------------------------------------------------6-------|
    A|------4--------------------------------------------------------------------|
    E|---4-----------------------------------------------------------------------|
    
    
    Dm                      Gm    C7  
       TE VOY A CAMBIAR EL NOMBRE
        (REQUINTO)
    E|---------4-2-----------------|
    B|-----2-------2--5-----2--4---|
    G|---2-----------------2-------|
    D|-4------------------4--------|
    A|-----------------------------|
    E|-----------------------------|
    
                    Dm
       PARA GUARDAR EL SECRETO
    
  • E----------------------------------------
    A--0-5-7-8-------------------------------
    D-----------5-5*7------------------------
    G----------------------------------------
    B----------------------------------------
    e----------------------------------------
    
    E----------------------------------------
    A---------------------------------------0
    D----------------------------------------0
    G------10-9-10----------------------------2
    B--6----------------6-8---5-6---3-5---2----3
    e--5---10-9-10*11---5-6*8-3-5*6-1-3*5-0-----1
    
    
    
    Te voy a cambiar el nombre
     SOL       DO7
    E--3-----------
    A--------------5
    
  • 1|----------------------------(5)--10-9-10---|
    2|----------------------------(6)------------|
    3|---------------------------------10-9-10---|
    4|-----------------5--5/7~-------------------|
    5|-----(0)--5-7-8----------------------------|
    6|-------------------------------------------|
    
    
    1|---5/6--6h8p6------------------------------0------1----|
    2|---6/8--8-------6/8--8h9p8---6/8--8h9p8---2------3-----|
    3|----------------7/9--9-------5/9--9-------------2------|
    4|-----------------------------------------------0-------|
    5|-------------------------------------------------------|
    6|-------------------------------------------------------|
    
    
    
    Te voy a cambiar el nombre
    
       Gm                     DO7
    
  • e-----------------5/10-9-10--5-6h8p6--3-5h6p5--1-3h5p3--0--------1--
    B-----------------6/10-9-10--6-8------5-6------3-5------2------3----
    G------------------------------------------------------------2------
    D----0-2-3-5-5/7-------------------------------------------0--------
    A--0----------------------------------------------------------------
    E-------------------------------------------------------------------
    
    Dm                      Gm    C7
       Te voy a cambiar el nombre,
                        Dm
    para guardar el secreto,
                         A7
    porque te amo y me amas,
                            Dm
    y a alguien, debemos respeto.
    
                         Gm    C7
    Te voy a cambiar el nombre,
                            Dm
    en base a lo que has traído,
    
  • Esta cancion esta hoy aqui por que mi padre me pidio que la tocara para su cumple... 
    y pues aqui esta, disfrutenla!!
    
                               SECRETO DE AMOR 
                                Joan Sebastian
    
    Transcrita por: Nestor Sadao Arechiga Cervantes
    
    La afinacion del Bajo es normal(E A D G)
    Empezamos!!!
    
      Q=95
     4/4
      Gtr I
      W          W          W          W
    |----------|----------|----------|------|
    |----------|----------|----------|------|
    |----------|----------|----------|------|
    |----------|----------|----------|------|
    
    
      W          W          W          W
    |----------|----------|----------|------|
    |----------|----------|----------|------|
    |----------|----------|----------|------|
    |----------|----------|----------|------|
    
    
      W          W          W          W
    |----------|----------|----------|------|
    |----------|----------|----------|------|
    |----------|----------|----------|------|
    |----------|----------|----------|------|
    
    
                 
  • +
    ¡Colabora con nosotros!
    Envíanos tu versión de esta canción

Letra de Secreto de amor
TE VOY A CAMBIAR EL NOMBRE
PARA GUARDAR EL SECRETO
PORQUE TE AMO Y ME AMAS
Y A ALGUIEN DEBEMOS RESPETO
TE VOY A CAMBIAR EL NOMBRE
EN BASE A LO QUE HAS TRAIDO
AHORA TE LLAMARAS GLORIA
LO TIENES BIEN MERECIDO
Y HEMOS DE DARNOS UN BESO
ENCERRADOS EN LA LUNA
SECRETO AMOR TE CONFIESO
TE QUIERO COMO A NINGUNA
Y PUEDO CAMBIARTE EL NOMBRE
PERO NO CAMBIO LA HISTORIA
TE LLAMES COMO TE LLAMES
PARA MI TU ERES LA GLORIA
ERES SECRETO DE AMOR (secreto)
ERES SECRETO DE AMOR (oye)
ERES SECRETO DE AMOR (secreto)
ERES SECRETO DE AMOR
DELANTE DE LA GENTE NO ME MIRES
NO SUSPIRES NO ME LLAMES AUNQUE ME AMES
DELANTE DE LA GENTE SOY TU AMIGO
HOY TE DIGO QUE CASTIGO
ERES SECRETO DE AMOR (secreto)
ERES SECRETO DE AMOR
TE VOY A CAMBIAR EL NOMBRE
PARA GUARDAR EL SECRETO
PORQUE TE AMO Y ME AMAS
NO DEBO SER INDISCRETO
(REQUINTO)

DELANTE DE LA GENTE...
ERES SECRETO DE AMOR (secreto)
ERES SECRETO DE AMOR
Y PUEDO CAMBIARTE EL NOMBRE...
(REQUINTO)
ERES SECRETO DE AMOR
ERES SECRETO DE AMOR
ERES SECRETO DE AMOR (secreto)
ERES SECRETO DE AMOR




[Secreto de amor chords][Secreto de amor cifra]
© LaCuerda.net · aviso legal · privacidad · es · en · pt · contacto