Acordes de Guitarra » J »Joan Sebastian » Tatuajes (Tab)

Tatuajes
Joan Sebastian

Letras, Acordes y Tabs para Guitarra, Bajo y Ukulele

  •   INTRO: C,D7,C,D7,C,G
    
        G              Bm
      Hiriendo mi felicidad
        C           Am/D
      me alejo a peticion de 
           D7         G
      tu orgullo, me ire aunque
                 Bm          C
      eres mi necesidad te dejo 
           Am/D            D7
      pero eso de que te olvide
         G-G7
      no se
    
    
          C                  D7
      Tatuajes de tus besos llevo 
                   G   C-G    C     
      en todo mi cuerpo,  tatuados 
    
  • C                        D                   C        G
    E--------|-3--3--3--3--3--3--3--3-|-2--3--3/5-|---8-7-----|----7-7---------
    B--------|-5--5--5--5--5--5--5--5-|-3--5--5/7-|-------8---|-8--8-8---------
    G------5-|------------------------|-----------|---------9-|-9--------------
    D--------|------------------------|-----------|-----------|----------------
    A--------|------------------------|-----------|-----------|----------------
    E--------|------------------------|-----------|-----------|----------------
    
    
        G              Bm       C
    Hiriendo mi felicidad, me alejo
       Am-D      D7             G
    a petición de tu orgullo, me iré
                          Bm     C
    aunque eres mi necesidad te dejo
       Am-D      D7             G
    pero eso de que te olvide no sé.
    
    
    CORO:
    
  • --INTRO--
    
         |-------------------x2-------------------|
               C                        D                   C        G
    E--------|-3--3--3--3--3--3--3--3-|-2--3--3/5-|---8-7-----|----7-7---------
    B--------|-5--5--5--5--5--5--5--5-|-3--5--5/7-|-------8---|-8--8-8---------
    G------0-|------------------------|-----------|---------9-|-9--------------
    D--------|------------------------|-----------|-----------|----------------
    A--------|------------------------|-----------|-----------|----------------
    E--------|------------------------|-----------|-----------|----------------
    
    
        G              Bm       C  
    Hiriendo mi felicidad, me alejo
       D                           G
    a petición de tu orgullo, me iré
                          Bm     C
    aunque eres mi necesidad te dejo
         D                        G
    pero eso de que te olvide no sé.
    
  •    C               D         C               D            C         G
    E--3-3-3-3-3-3-3-3-2-3-3/5---3-3-3-3-3-3-3-3-2-3-3/5--8-7---------7-7--
    B--5-5-5-5-5-5-5-5-3-5-5/7---5-5-5-5-5-5-5-5-3-5-5/7--8-8-8-----8-8-8--
    G-5-------------------------5-----------------------------9-9---9---7--
    D-----------------------------------------------------------10------0--
    A----------------------------------------------------------------------
    E----------------------------------------------------------------------
    
    RITMO HUAPANGO
    
    Abajo - Arriba - Silencio - Abajo - Abajo - Silencio - Abajo -Silencio
    
        G              Bm
    Hiriendo mi felicidad,
         C        D7
    me alejo, a petición de tu orgullo.
        G                        Bm
    Me iré, aunque eres mi necesidad,
        C          D7                      G
    te dejo, pero eso de que te olvide, no sé.
    
  • <-----  --->
          Am                D         G    G7
    pe--roe so de  que teol vi-de, no sé.
    sol la  la sol la  sol  la la  la sol
    
    
    
       C			 D
    Ta-tua-jes de tus be-sos lle-vo
    re mi  mi  mi mi  mi mi  mi  re
    
    	    G        G7
    en to-do mi cuer-po,  
    re re re do do   si
    
       C
    ta-tua-dos so-breel tiem-po,
    re mi  mi  mi mi    mi   mi  
    
       D			   G
    
  • +
    ¡Colabora con nosotros!
    Envíanos tu versión de esta canción

Letra de Tatuajes
Hiriendo mi felicidad
me alejo a peticion de
tu orgullo, me ire aunque
eres mi necesidad te dejo
pero eso de que te olvide
no se
Tatuajes de tus besos llevo
en todo mi cuerpo, tatuados
sobre el tiempo el tiempo
que te conoci

Se me hizo vicio ver tus ojos
respirar tu aliento, me voy
pero te llevo dentro de mi


Atendiendo a tu razon me marcho
victima de un alto ego me voy
con otro amor el corazon me
marcho seguro de que te olvide
no estoy
Tatuajes de tus besos......
Y acaba de esta forma:
me voy pero te llevo dentro


o simplemente cejilla en el 5°
traste
Ritmo:Balada ritmica




[Tatuajes chords][Tatuajes cifra]
© LaCuerda.net · aviso legal · privacidad · es · en · pt · contacto