Acordes de Guitarra » J »Joan Sebastian » El primer tonto (Tab)

El primer tonto
Joan Sebastian

Letras, Acordes y Tabs para Guitarra, Bajo y Ukulele

  •                           G 
    Que no te habran dicho 
                              Em 
    que no te habran dado 
                          Am
    dí si hay un capricho 
                           D7 
    que no has realizado 
    
    Di si hay un espacio 
    perdido en tus días 
    para llenarlo con mis tonterias 
      
    Coro:
                                 G
    Quiero una respuesta (quiero una respuesta) 
                           Em
    y la quiero pronto (y la quiero pronto) 
                         Am
    dime si en tu vida 
    
  •                  SOL
    Que no te habrán dicho
                     MIm
    Que no te habrán dado
                    DO
    Di si hay un capricho
                    RE
    Que no haz realizado
                   SOL
    Di si hay un espacio
                   MIm
    Perdido en tus días
                 DO
    Yo quiero llenarlo
                 RE
    Con mis tonterías
                   SOL
    Quiero una respuesta
                MIm
    Y la quiero pronto
    
  • INTRO  E-A-C#m-D-E
    
    
                         A 
    Que no te habran dicho 
                         F#m 
    que no te habran dado 
                    D
    dí si hay un capricho 
                   E  E7 
    que no has realizado 
    
                     A
    Di si hay un espacio 
                   F#m
    perdido en tus días 
                  D                 E  E7             
    yo quiero llenarlo con mis tonterias 
      
    
    
  •           A             F#m
    e--0-0-0-0---0--0-0-0---2---2-4-5-5-4--4-2-2-0--0-0-0---0
    B--2-2-2-0-2-2--2-2-0-2-2---3-5-7-7-5--5-3-3-2--2-0-2-2-2
    G--2-------2----------2-2-----------------------------2--
    D--2--------------------4--------------------------------
    A--0--------------------4--------------------------------
    E--0--------------------2--------------------------------
    
              A           F#m
    e--0-0-0---0--0-0-0---2---2-4-5-5-4--4-2-2-0--0-0-0-
    B--2-2-0-2-2--2-2-0-2-2---3-5-7-7-5--5-3-3-2--2-0-2-
    G--------2----------2-2---------------------------2-
    D---------------------4---------------------------2-
    A---------------------4---------------------------0-
    E---------------------2---------------------------0-
    
    
                      A
    Que no te habran dicho
                      F#m
    
  •              A    /G#   F#m         D       E        A
    e--------------------------------------------------------------
    B------------------------7--7-9-10-10-9-9-7-7-5-5-3--2-3-5-----
    G----6-6-4-2-6--6-6-4-2--7--7-9-11-11-9-9-7-7-6-6-4--2-4-6-----
    D----7-7-6-4-7--7-7-6-4----------------------------------------
    A--------------------------------------------------------------
    E--------------------------------------------------------------
                 A    /G#   F#m         D       E       A
    e---------------------------------------------------------
    B------------------------7--7-9-10-10-9-9-7-7-5-5-3-2-----
    G----6-6-4-2-6--6-6-4-2--7--7-9-11-11-9-9-7-7-6-6-4-2-----
    D----7-7-6-4-7--7-7-6-4-----------------------------------
    A---------------------------------------------------------
    E---------------------------------------------------------
    
                       A
    Que no te habrán dicho,
                      F#m
    que no te habrán dado,
                      D
    
  • B= BAJO
    *= ARRIBA
    V= ABAJO
    
       B        B   B     B
    e-------*-----------*----
    B-----|-|-|--|----|-|-|-|
    G-----|-|-|--|----|-|-|-|
    D-----|-|-|--|----|-|-|-|
    A-----|-|-|--|----|-|-|-|
    E-----|-|-|--|----|-|-|-|
         v   v  v   v   v v
    
    e--------------0-0-----------------0-0-----2-4-5-5-4--4-2-2-0--0-0-0---
    B-0/2-2-0----2-2-2----0/2-2-0---2--2-2-----3-5-7-7-5--5-3-3-2--2-0-2--2
    G----------2-2----------------2-2-------------------------------------2
    D----------------------------------------------------------------------
    A----------------------------------------------------------------------
    E----------------------------------------------------------------------
    
    
  • +
    ¡Colabora con nosotros!
    Envíanos tu versión de esta canción

Letra de El primer tonto
Que no te habran dicho
que no te habran dado
dí si hay un capricho
que no has realizado
Di si hay un espacio
perdido en tus días
para llenarlo con mis tonterias

Quiero una respuesta (quiero una respuesta)
y la quiero pronto (y la quiero pronto)
dime si en tu vida
has amado a otro tonto
Dí que no mi amor (di que no mi amor)
dí que no por favor (di que no por favor)
dí que al menos en eso
el primero soy yo
El primer tonto de tu vida quiero ser
el primer tonto que te amó a tí mujer
el primer tonto ya será satisfacción
de cuálquier modo
yo te dí mi corazón.




[El primer tonto chords][El primer tonto cifra]
© LaCuerda.net · aviso legal · privacidad · es · en · pt · contacto