Acordes de Guitarra » J »Joan Sebastian » Manantial (Tab)
  • Letra y Acordes
    Intro: G-C-D-G (2)
    
    G                                   Bm
    Reconozco he sido un necio en las cosas del amor
             C                           D
    mas con gusto pago el precio que me cuesta cada error
              C                           G
    yo he vendido mi amor propio para pagar tu altivez
          D        C          G
    y no pude por poco ya lo vez.
    
    G                               Bm
    No me des un vaso de agua nada vas a remediar
             C                        D
    porque mi sed es tan grande necesita un manantial
             C                        G
    necesito quien me quiera necesito a quien querer
    D   C          G
    tu debes de saber.
    
    
  • Letra y Acordes
     G
    Reconozco he sido un necio
      Em
    en las cosas del amor
      C
    mas con gusto pago el precio
      D7
    que me cuesta cada error
      C
    yo he vendido mi amor propio
      D7            G
    para pagar tu altivez
          C        D7          G
    y no pude por poco ya lo vez.
    
    
    
    
      G
    No me des un vaso de agua
    
  • Tablatura
        G                                      C     D           G
    e. --------------------------------|----------------------------|
    B. -15~-17-15----------------------|----------------------------|
    G. -----------16-16-14----14-14/16-|-16-14----17-17-16----14-16-|
    D. --------------------17----------|-------17----------17-------|
    A. --------------------------------|----------------------------|
    E. --------------------------------|----------------------------|
    
    
        G                                      C     D           G
    e. --------------------------------|----------------------------|
    B. -15~-17-15----------------------|----------------------------|
    G. -----------16-16-14----14-14/16-|-16-14----17-17-16----14----|
    D. --------------------17----------|-------17----------17----17-|
    A. --------------------------------|----------------------------|
    E. --------------------------------|----------------------------|
    
    
    (mientras el Bajo toca ésta línea)
    
    
  • Tablatura
    -Armónica (C):                     -Bajo:
    
    
     /4...  (4) 4 3 (2) 2 (3) 4        3. -----------|-----------|
    /(3) 3 2                           4. -----1-0---|-----1-0---|
     (3) (3)* 3 2 3 4...               5. ---------2-|---------2-|
                                       6. -2h3-------|-2h3-------|
    
     /4...  (4) 4 3 (2) 2 (3) 4
    /(3) 3 2 
     (3) (3)* 3 2 (2) 3...
    
    
    -Gtrra. Eléctrica:
    
    
    1. -/12-10----|
    2. --------12-|
    3. -----------|
    4. -----------|
    
  • Armónica
     # - Nota soplada   |
    (#)- Nota aspirada  |
     / - Slide/deslice  |
     ~ - Nota mantenida |
    --------------------☼------------☼
    ►Armónica en tono de «G» ó «SOL» |
    ---------------------------------☼
    
    *Intro e Intermedio:
    
    
    /4~~  (4) 4  3  3 (2) 2 (2) 3~
    
    /3 (2) 2 (3) (3) 3  2 (2) 3~
    
    
    /4~~  (4) 4  3  3 (2) 2 (2) 3~
    /3 (2) 2 (3) (3) 3  2 (2) 2~
    
    
    *Outro:
    
    
    /4~~  (4) 4  3  3 (2) 2 (2) 3~
    /3 (2) 2 (3) (3) 3  2 (2) 2~
  • +
    ¡Colabora con nosotros!
    Envíanos tu versión de esta canción

Letra de Manantial
Reconozco he sido un necio
en las cosas del amor
mas con gusto pago el precio
que me cuesta cada error
yo he vendido mi amor propio
para pagar tu altivez
y no pude por poco ya lo vez.
No me des un vaso de agua
nada vas a remediar
porque mi sed es tan grande
necesita un manantial
necesito quien me quiera
necesito a quien querer
Tú debes de saber.
Yo tengo sed, yo necesito,
yo necesito a quien querer,
yo necesito a quien amar,
para mi sed yo necesito un manantial.
Ni me amas, ni me dejas
ni te quedas ni te vas
y mi amor mal alimenta
las migajas que me das
yo te amo con locura
pero Tú te amas más
Si Tú te amas más.
No me des un vaso de agua.......
SALUDOS A LA RAZA DE EMPALME MI COMPA OMARSON, EL LIEBRE, MI
CARNAL EL GIL, EL CHANGO, EL SHOLUGO, LOS CANELAS, LOS CUATES GETONES



© LaCuerda.net · aviso legal · privacidad · contacto