Tablatura para Guitarra de Héroes del Silencio: los Placeres de la Pobreza
Conexión · Inscripción
Letras y Acordes
Pantalla Completa
Imprimir
Versión Texto
Añadir Favorito
Otras Versiones

Mostrar Diagramas
Desfile Automático
Manipular Acordes
Formato del Texto


los Placeres de la Pobreza(TAB)

Héroes del Silencio

calidad:
hero0434
AUTOR: Pedro Andreu, Enrique Bunbury, Joaquin Cardiel, Janet Valdivia
ALBUM: Antologia Audiovisual (1993)
Enviado por manuel
SOLO

1.- Le puse los minutos a los que corresponde cada parte.

2.- Simbologia:

() = se tiene que usar una tecnica llamada "bending"
 / = deslizar dedo







min: 2.53
1.--------------------------------------------------------------
2.--------12---------12--12-12---------12-----------------------
3.-14(16)-----14(16)------------14(16)-----14(16)(14)-12-14-12--
4.--------------------------------------------------------------
5.--------------------------------------------------------------
6.--------------------------------------------------------------


min: 2.56
1.---------------------------------------------------
2.--------12---------12--12-12-------------------15--
3.-14(16)-----14(16)------------14(16)(14)-12-14-----
4.---------------------------------------------------
5.---------------------------------------------------
6.---------------------------------------------------


min: 2.58
1.-----------------------------------------------------------------
2.-15-14-12-14-15--15/14/12-14-15--15/14/12-14-15--15/14/12-14-15--
3.-----------------------------------------------------------------
4.-----------------------------------------------------------------
5.-----------------------------------------------------------------
6.-----------------------------------------------------------------


min: 3.01
1.-15-14-12----12-----------------------------------
2.----------15-----14/15/14-14-12-------------------
3.---------------------------------14(16)-14-12-----
4.----------------------------------------------14--
5.--------------------------------------------------
6.--------------------------------------------------


min: 3.03
1.--------------------------------------------------------12---------
2.-----15-15--15--15--15--12--10--------15-15-15---------------------
3.--14-16-16--16--16--16--14--12----/14-16-16-16---14(16)----14(16)--
4.-------------------------------------------------------------------
5.-------------------------------------------------------------------
6.-------------------------------------------------------------------


min: 3.08
1.------------------------------------
2.-----15-15--15--15--15--12--10--10--
3.--14-16-16--16--16--16--14--12--12--
4.------------------------------------
5.------------------------------------
6.------------------------------------


min: 3.10
1.---------------------------------------
2.--8/10/8-8-----------------------------
3.-----------9--7/9/7-7------------------
4.----------------------9--7/9/7-7-------
5.---------------------------------10-7--
6.---------------------------------------


min: 3.13
1.---------------------------------------------------12-14-16-
2.------------------------------------------12-14-16----------
3.---------9-11-12-11/12/11/9----9-11-11/14-------------------
4.-9-11-12--------------------12------------------------------
5.------------------------------------------------------------
6.------------------------------------------------------------


min: 3.15
1.-14/15/14/12----12------------
2.-------------15----15-15(17)--
3.------------------------------
4.------------------------------
5.------------------------------
6.------------------------------


min: 3.15
1.------------------------------------------------
2.-----------12-----------15-17-17(19)(17)----15--
3.-14(16)-14----14--14/16------------------16-----
4.------------------------------------------------
5.------------------------------------------------
6.------------------------------------------------


min: 3.18
1.-14-15-17-14/17/14----14------14-14/17/14-14------14-----------------
2.-------------------17----17------------------17------17-15-14----14--
3.--------------------------------------------------------------16-----
4.---------------------------------------------------------------------
5.---------------------------------------------------------------------
6.---------------------------------------------------------------------


min: 3.21
1.-----------------
2.-----------------
3.-9-9(11)(9)-7----
4.--------------9--
5.-----------------
6.-----------------


min: 3.22
1.---------------7-----------------------------
2.---------------------------------------------
3.-7-------9(11)---9-7----7-9----7-9-7---7---7-
4.---9-9----------------9------9-------9---9---
5.---------------------------------------------
6.---------------------------------------------


min: 3.27
1.-------7--------------------------------------------
2.------------------------------------7-10-7-10/12-10-
3.-9(11)---9-7--9-11-9/11/9-7----9/11-----------------
4.----------------------------9-----------------------
5.----------------------------------------------------
6.----------------------------------------------------


min: 3.30
1.--------------------------------------------------------------
2.-12--10--7-----3--3----3--7-----------1--1--7-----------1--1--
3.------------9--4--4----4-----9--7--6--2--2-----9--7--6--2--2--
4.--------------------------------------2--2--------------2--2--
5.--------------------------------------------------------------
6.--------------------------------------------------------------


min: 3.38
1.-------------------
2.-7-----------4--4--
3.----9--7--6--6--6--
4.-------------------
5.-------------------
6.-------------------


min: 3.40
1.-------------------------------------------------7-------------------
2.-8--7--------3--7-----------1--7-----------1--7-----10--7--10-10(12)-
3.-------9--7--4-----9--7--6--2-----9--7--6--2-------------------------
4.----------------------------2--------------2-------------------------
5.---------------------------------------------------------------------
6.---------------------------------------------------------------------


Eso es todo. Espero les sea útil.
Este fichero es trabajo propio de su transcriptor y representa su interpretación personal de la canción. El material contenido en esta página es
para exclusivo uso privado, por lo que se prohibe su reproducción o retransmisión, así como su uso para fines comerciales.

© LaCuerda.net · Aviso Legal · Privacidad