Acordes de Guitarra » H »Héroes del Silencio » la Visión de Vuestras Almas (Tab)

la Visión de Vuestras Almas
Héroes del Silencio

Letras, Acordes y Tabs para Guitarra, Bajo y Ukulele

  • INTRO [G F] x 4
          [C B]
          [G Bm Em D Csus2] x 2
    
    G                      F
    Y me pierdo entre los signos
    G                      F
    y las mentiras de los libros 
                        G
    que mentirosos que son  
                          F
    que cada amanecer proponen 
    G                       F   C
    cavar muertos, sembrar vivos 
                     B
    y no puedo recordar 
    
           G      Bm      Em    D     Csus2
    La vision de vuestras almas al pecar
           G      Bm      Em    D     Csus2
    
  •    G
     e----3------2-----0-------------
     B------3------3-----3-------3---
     G--0------0-----0-----0--5------ x2
     D-------------------------------
     A-------------------------------
     E-------------------------------
    
       F
     e----1-----0------------------
     B---1--1-----1---3---1---1----
     G--0-----0-----0-------3------ x2
     D-----------------------------
     A-----------------------------
     E-----------------------------
    
       G
     e----3-----2-----0------------
     B---3--3-----3-----3------3---
     G--0-----0-----0-----0--5----- x2
    
  • e-------------------------|---------------------------|
    B---8-----7-----5---------|-----8-----7-----5---------|
    G-----7-----7-----7---5-7-|-7-----7-----7-----7---5-7-|
    D-5-----5-----5-----5-----|-5-------5-----5-----5-----|
    A-------------------------|---------------------------|
    e-------------------------|---------------------------|
                                                             X 2 veces
    e-------------------------|---------------------------|
    B-6-6-----5-----3---------|-6---6-----5-----3---------|
    G-5---5-----5-----5---3-5-|-5-----5-----5-----5---3-5-|
    D-3-----3-----3-----3-----|-3-------3-----3-----3-----|
    A-------------------------|---------------------------|
    E-------------------------|---------------------------|
    
    e---------------------------|---------------------------|
    B-8-8-----8-----8-----8-----|-6-6-----6-----6-----6-----|
    G-7---7-----7-----7-----7---|-5---5-----5-----5-----5---|
    D-5-----5-----5-----5-----5-|-3-----3-----3-----3-----3-| X 2 veces
    A---------------------------|---------------------------|
    E---------------------------|---------------------------|
    
  • Bajo
    
    
    
                                                                                   
    G||------------------|------------------|------------------|------------------|
    D||------------------|------------------|------------------|------------------|
    A||------------------|------------------|------------------|------------------|
    E||------------------|------------------|------------------|------------------|
    
    
                                                          
    --------------------------|--------------------------|
    --------------------------|--------------------------|
    --0--0--0--0--0--0--0--0--|--0--0--0--0--0--0--0--0--|
    --------------------------|--------------------------|
    
    
                                                          
    --------------------------|--------------------------|
    --------------------------|--------------------------|
    --0--0--0--0--0--0--0--0--|--0--0--0--0--0--0--0--0--|
    --------------------------|--------------------------|
    
    
               
  • +
    ¡Colabora con nosotros!
    Envíanos tu versión de esta canción

Letra de la Visión de Vuestras Almas
Y me pierdo entre los signos
y las mentiras de los libros
que mentirosos que son
que cada amanecer proponen
cavar muertos, sembrar vivos
y no puedo recordar
La vision de vuestras almas al pecar
La vision de vuestras almas al pecar
Aunque la historia no fuera cierta
mi ignorancia me condena
a robar el tiempo a los de atras
atreverse no merece la pena
y no puedo recordar
La vision de vuestras almas al pecar
La vision de vuestras almas al pecar
La vision
y no puedo recordar

La vision de vuestras almas al pecar
La vision de vuestras almas al pecar
No entiendo mas que signos
de la locura del testigo
que loco que esta
que cada atardecer quisiera
cavar muertos, sembrar vivos
despierto
y no puedo recordar
La vision de vuestras almas al pecar
La vision de vuestras almas al pecar
La vision




[la Visión de Vuestras Almas chords][la Visión de Vuestras Almas cifra]
© LaCuerda.net · aviso legal · privacidad · es · en · pt · contacto