Tablatura para Guitarra de Héroes del Silencio: los Placeres de la Pobreza
Conexión · Inscripción
Letras y Acordes
Pantalla Completa
Imprimir
Versión Texto
Añadir Favorito
Otras Versiones

Mostrar Diagramas
Desfile Automático
Manipular Acordes
Formato del Texto


los Placeres de la Pobreza(TAB)

Héroes del Silencio

calidad:
hero0432
AUTOR: Pedro Andreu, Enrique Bunbury, Joaquin Cardiel, Janet Valdivia
ALBUM: Antologia Audiovisual (1993)
Enviado por hector
Bueno esta rola es una de las mas prendidas del disco
Espiritu del vino espero que les guste esta tablatura 
ya que me costo algo de trabajo sacar el solo.

   RIFF 1
       3 VECES                1 VEZ
E----------------------|-------------------------|
B----------------------|------------------9------|
G-4-4-\6-6--\9--/7--/6-|---4-4--\6-6---\9--9-7---|
D-2-2------------------|---2-2-------------------|
A----------------------|-------------------------|
E----------------------|-------------------------|

   RIFF2
E---------------------------------------------------|
B----------------7-------------------------7h-9-7---|
G-4-4---\6-6--\9--9-7------4-4---\6-6---\9--------9-|
D---------------------------------------------------|
A---------------------------------------------------|
E---------------------------------------------------|

El "riff 1" va en esta parte de la cancion 

La vejez de los pueblos de estirpe divina
y sus verdades olvidadas

La malila de diamantes contra la hoja de
palma

Atravez de la radio temble

   RIFF2
E---------------------------------------------------|
B----------------7-------------------------7h-9-7---|
G-4-4---\6-6--\9--9-7------4-4---\6-6---\9--------9-|
D-2-2----------------------2-2----------------------|
A---------------------------------------------------|
E---------------------------------------------------|

Y apagar con la moneda de la curiosidad en
el suministro de charas 

Masturbacion de interrogantes para solo
escuchar

Un susurro de hilo de plata

Coro

Cegados por la voz de la inexperiencia

E-----------------------------------------|
B-----------------------------------------|
G-4-4-4-4-4-4-4---------7-7-7-7-----------|
D-4-4-4-4-4-4-4-5-5-5-5-7-7-7-7-7-7-7-7-7-|
A-2-2-2-2-2-2-2-5-5-5-5-5-5-5-5-7-7-7-7-7-|
E---------------3-3-3-3---------5-5-5-5-5-|

  Nos arrastramos sin pensar
          
E-------------------------------------|
B-------------------------------------|
G-4-4-4-4-----------7-7-7-------------|
D-4-4-4-4-5-5-5-5-5-7-7-7-7-7-7-7-7-7-|
A-2-2-2-2-5-5-5-5-5-5-5-5-7-7-7-7-7-7-|
E---------3-3-3-3-3-------5-5-5-5-5-5-|

  Alomos del desierto hacia las cavernas

E-------------------------------------------|
B-------------------------------------------|
G-4-4-4-4-4-4-----------7-7-7-7-7-----------|
D-4-4-4-4-4-4-5-5-5-5-5-7-7-7-7-7-7-7-7-7-7-|
A-2-2-2-2-2-2-5-5-5-5-5-5-5-5-5-5-7-7-7-7-7-|
E-------------3-3-3-3-3-----------5-5-5-5-5-|

  Las huellas de un peregrino me guiaran 

E---------------------------------------------|
B---------------------------------------------|
G-4-4-4-4-4-4-4-------------7-7-7-7-7---------|
D-4-4-4-4-4-4-4-5-5-5-5-5-5-7-7-7-7-7-7-7-7-7-|
A-2-2-2-2-2-2-2-5-5-5-5-5-5-5-5-5-5-5-7-7-7-7-|
E---------------3-3-3-3-3-3-----------5-5-5-5-|

     Riff 2

 verso 2 Riff 2

Mi ciudad estaba muerta antes de nacer
pura sangre desbacado

Detesto a los tibios de vocacion 
y dicen que a la fuerza ahorcan

Coro

Cegados por la voz de la inexperiencia

E-----------------------------------------|
B-----------------------------------------|
G-4-4-4-4-4-4-4---------7-7-7-7-----------|
D-4-4-4-4-4-4-4-5-5-5-5-7-7-7-7-7-7-7-7-7-|
A-2-2-2-2-2-2-2-5-5-5-5-5-5-5-5-7-7-7-7-7-|
E---------------3-3-3-3---------5-5-5-5-5-|

  Nos arrastramos sin pensar
          
E-------------------------------------|
B-------------------------------------|
G-4-4-4-4-----------7-7-7-------------|
D-4-4-4-4-5-5-5-5-5-7-7-7-7-7-7-7-7-7-|
A-2-2-2-2-5-5-5-5-5-5-5-5-7-7-7-7-7-7-|
E---------3-3-3-3-3-------5-5-5-5-5-5-|

  Alomos del desierto hacia las cavernas

E-------------------------------------------|
B-------------------------------------------|
G-4-4-4-4-4-4-----------7-7-7-7-7-----------|
D-4-4-4-4-4-4-5-5-5-5-5-7-7-7-7-7-7-7-7-7-7-|
A-2-2-2-2-2-2-5-5-5-5-5-5-5-5-5-5-7-7-7-7-7-|
E-------------3-3-3-3-3-----------5-5-5-5-5-|

  Las huellas de un peregrino me guiaran 

E---------------------------------------------|
B---------------------------------------------|
G-4-4-4-4-4-4-4-------------7-7-7-7-7---------|
D-4-4-4-4-4-4-4-5-5-5-5-5-5-7-7-7-7-7-5-5-5-5-|
A-2-2-2-2-2-2-2-5-5-5-5-5-5-5-5-5-5-5-5-5-5-5-|
E---------------3-3-3-3-3-3-----------3-3-3-3-|

 ...Me guiaran    ningun otro cielo en la tierra

E--------------------------------------------------|
B--------------------------------------------------|
G--------------------------------------------------|
D-5-5-5-5-5-5-5------7-7-7-7-7-7-7-7-7-7-7-7-4-4-4-|
A-5-5-5-5-5-5-5------7-7-7-7-7-7-7-7-7-7-7-7-4-4-4-|
E-3-3-3-3-3-3-3------5-5-5-5-5-5-5-5-5-5-5-5-2-2-2-|

  Cara a cara al si y al no dejando condena y cadenas

E-----------------------------------------------------|
B-----------------------------------------------------|
G-----------------------------------------------------|
D-4-4-4-4-7-7-7-7-7-7-7-7-5-5-5-5-7-7-7-7-7-7-7-7-4-4-|
A-4-4-4-4-7-7-7-7-7-7-7-7-5-5-5-5-7-7-7-7-7-7-7-7-4-4-|
E-2-2-2-2-5-5-5-5-5-5-5-5-3-3-3-3-5-5-5-5-5-5-5-5-2-2-|

  Lado opuesto a la razon 

E--------------------------|
B--------------------------|
G--------------------------|
D-4-4-4-4-7-7-7-7-7-7-7-7--|
A-4-4-4-4-7-7-7-7-7-7-7-7--|
E-2-2-2-2-5-5-5-5-5-5-5-5--|

 Solo

E--------------------------------------------------------
B-10h-12-10h-12-10h-12-10h-12-10h-12-10h-12-10h-12-10-12-
G--------------------------------------------------------
D--------------------------------------------------------
A--------------------------------------------------------
E--------------------------------------------------------

E-----------------------------------------------------10~-
B-10h-12-10h-12-10h-12-10h-12-10h-12-10h-12-10h-12-10h----
G---------------------------------------------------------
D---------------------------------------------------------
A---------------------------------------------------------
E---------------------------------------------------------

E--------10--------10-------10h-12-10----------------------
B-12-10-----12-10----12-10-----------12-10-----------------
G------11--------11-------11--------------12-11------------
D----------------------------------------------12-10-------
A---------------------------------------------------*-*----
E------------------------------------------------------*-*-

E--------------------------------------------------------------
B-------12-12-12-12-12-10-8~------12-12-12-12-12-10b-10-8-8-10-
G--------------------------------------------------------------
D--------------------------------------------------------------
A--------------------------------------------------------------
E--------------------------------------------------------------

E----------------------------------------------------------
B---12-12-12-12-12-10-8~-----------------------------------
G-----------------------11h-12-9h-11-7h-9------------------
D----------------------------------------10h-12-9h-10------
A----------------------------------------------------*-*---
E-------------------------------------------------------*-*

E----------------
B----------------
G--------9-11-12-
D-9-10-12--------
A----------------
E----------------

E-----------------------8-10-12-14-12-10-12b~~~
B----------------8-10-12-----------------------
G--------9-11-12-------------------------------
D-9-10-12--------------------------------------
A----------------------------------------------
E----------------------------------------------

E-8-10-\12-14-------10-12\-14----14-12-14-12-
B--------------12-13-------------------------
G--------------------------------------------
D--------------------------------------------
A--------------------------------------------
E--------------------------------------------

E-------------------------------
B-15-13-12-13-12----------------
G----------------14-12-11-9-/-\-
D-------------------------------
A-------------------------------
E-------------------------------

E-----------------------------------------------
B---------------------------------------10\-14/-
G-9h-11p-9-----9h-11p-9------11-9----9----------
D---------12b-9--------12b-9------12------------
A-----------------------------------------------
E-----------------------------------------------

E------------------------------------------------
B------------------------------------------------
G-11-9-7-6--2\-4~-----11-9-7-6--2~-11-9-7-6--2~--
D------------------------------------------------
A------------------------------------------------
E------------------------------------------------

E--------------------------------------------------
B--------------------------------------------------
G-11-9-7-6-6~-------12-11-9-7--2\-4---11-9-7-6--2~-
D--------------------------------------------------
A--------------------------------------------------
E--------------------------------------------------

E--------------------------------
B--------------------------------
G-11-9-7-6--2-----12-10-7-10\-12-
D---------------11---------------
A--------------------------------
E--------------------------------

Y los placeres de la pobreza han vencido 
a mi burlada revolucion

Y los placeres de la pobreza han vencido 
a mi burlada revolucion

Coro

Cegados por la voz de la inexperiencia

E-----------------------------------------|
B-----------------------------------------|
G-4-4-4-4-4-4-4---------7-7-7-7-----------|
D-4-4-4-4-4-4-4-5-5-5-5-7-7-7-7-7-7-7-7-7-|
A-2-2-2-2-2-2-2-5-5-5-5-5-5-5-5-7-7-7-7-7-|
E---------------3-3-3-3---------5-5-5-5-5-|

  Nos arrastramos sin pensar
          
E-------------------------------------|
B-------------------------------------|
G-4-4-4-4-----------7-7-7-------------|
D-4-4-4-4-5-5-5-5-5-7-7-7-7-7-7-7-7-7-|
A-2-2-2-2-5-5-5-5-5-5-5-5-7-7-7-7-7-7-|
E---------3-3-3-3-3-------5-5-5-5-5-5-|

  Alomos del desierto hacia las cavernas

E-------------------------------------------|
B-------------------------------------------|
G-4-4-4-4-4-4-----------7-7-7-7-7-----------|
D-4-4-4-4-4-4-5-5-5-5-5-7-7-7-7-7-7-7-7-7-7-|
A-2-2-2-2-2-2-5-5-5-5-5-5-5-5-5-5-7-7-7-7-7-|
E-------------3-3-3-3-3-----------5-5-5-5-5-|

  Las huellas de un peregrino me guiaran 

E---------------------------------------------|
B---------------------------------------------|
G-4-4-4-4-4-4-4-------------7-7-7-7-7---------|
D-4-4-4-4-4-4-4-5-5-5-5-5-5-7-7-7-7-7-7-7-7-7-|
A-2-2-2-2-2-2-2-5-5-5-5-5-5-5-5-5-5-5-7-7-7-7-|
E---------------3-3-3-3-3-3-----------5-5-5-5-|

...Me guiaran    ningun otro cielo en la tierra

E--------------------------------------------------|
B--------------------------------------------------|
G--------------------------------------------------|
D-5-5-5-5-5-5-5------7-7-7-7-7-7-7-7-7-7-7-7-4-4-4-|
A-5-5-5-5-5-5-5------7-7-7-7-7-7-7-7-7-7-7-7-4-4-4-|
E-3-3-3-3-3-3-3------5-5-5-5-5-5-5-5-5-5-5-5-2-2-2-|

  Cara a cara al si y al no dejando condena y cadenas

E-----------------------------------------------------|
B-----------------------------------------------------|
G-----------------------------------------------------|
D-4-4-4-4-7-7-7-7-7-7-7-7-5-5-5-5-7-7-7-7-7-7-7-7-4-4-|
A-4-4-4-4-7-7-7-7-7-7-7-7-5-5-5-5-7-7-7-7-7-7-7-7-4-4-|
E-2-2-2-2-5-5-5-5-5-5-5-5-3-3-3-3-5-5-5-5-5-5-5-5-2-2-|

  Lado opuesto a la razooooooooooooon.

E--------------------------------------|
B--------------------------------------|
G-------------------------------5------|
D-4-4-4-4-7-7-7-7-7-7-7-7-------5------|
A-4-4-4-4-7-7-7-7-7-7-7-7-------3------|
E-2-2-2-2-5-5-5-5-5-5-5-5--------------|

Bueno creo que eso es todo y ya saben dudas comontarios
acerca dela tablatura a mi e-mail hector_miguel114@hotmail.com
Este fichero es trabajo propio de su transcriptor y representa su interpretación personal de la canción. El material contenido en esta página es
para exclusivo uso privado, por lo que se prohibe su reproducción o retransmisión, así como su uso para fines comerciales.

© LaCuerda.net · Aviso Legal · Privacidad