Acordes de Guitarra » H »Héroes del Silencio » Chispa adecuada (Rarezas) (Tab)

Chispa adecuada (Rarezas)
Héroes del Silencio

Letras, Acordes y Tabs para Guitarra, Bajo y Ukulele

  •     E  ---------------------------------------------------------------------
        B  ---------------------------------------------------------------------
        G  ---------------------------------------------------------------------
        D  ---------------------------------------------------------------------                
        A  -----------------------------------------5/7---------7-----7---------
        D  ----0-0---3p0---0--5p0--0----------------8/10-------10-----10--------
    
           Aunque yo recomiendo tocarlo como sigue por comodidad 
           y porque esta es la afinacion mas normal de la guitarra (para no tener que bajar  la 6  a re)
    
    INTRO:  SE REPITE 4 VECES
    
        E  ----------------------------------------------------------------------
        B  ----------------------------------------------------------------------
        G  ----------------------------------------------------------------------
        D  ----0-0---3p0---0--5p0--0---------------------------------------------                    
        A  -----------------------------------------5/7---------7-----7----------
        E  -----------------------------------------6/9---------9-----9----------
    
    
    
  •   Q    Q   Q    Q   (D)    Q    Q  (Am)  Q     Q    Q    Q    Q
    E||-----------------------|-------1----0---------|------------0---------|
    B||-----------------------|-----------------1----|-------1---------1----|
    G||-----------------------|--2-------------------|--2-------------------|
    D||------------------0----|----------------------|----------------------|
    A||--3-/--3s----5---------|----------------------|----------------------|
    E||-----------------------|----------------------|----------------------|
    
    
        (A# )                   (C)
    ----------------------|----------------------|----------------------|
    ----------------------|----------------------|-------1---------1----|
    --2-------------------|--3---------3---------|--0-------------------|
    -----------------3----|-------3---------2----|------------2---------|
    -------0----1---------|----------------------|----------------------|
    ----------------------|----------------------|----------------------|
    
    
    Verso:
    
    
  • E------------------------------------------------------
    A------------------------------------------------------
    D-0----------------------------------------------------
    g--2---2-3-5-7-5-7-5h7-7-7-5h7-7-9-9-9h10-9-7-5-5h7-2--
    b---3--------------------------------------------------
    e----0-------------------------------------------------
    
    E------------------------------------------------------
    A------------------------------------------------------
    D-0----------------------------------------------------
    g--2---------------------------------------------------
    b---3------------------------------3-1-1h3-3-----------
    e----5-5-5-3-5-6-5-3-1-1h3-1-0-1-0---------------------
    
    Aqui empieza lo demás, como casi toda la cancion va igual será el riff 1
    
    (riff1)
    E------------------------------------------------------
    A-3-3h5-5-----------0-----------0-1-----------3--------
    D-----------------------------------3---3-------5------
    
  •       Dm                       Am            Bb        F       C
    e|------------------------------------------------------------------
    B|--------------6---5------------5h6--5----------------1-1-1--------
    G|ú-------------------5-----------------5----------3-----------------
    D|ú---------0--0---0---------0---------------------------------------
    A|---3-3h5----------------0---0------------0-1--1----1---3---1s3----
    E|------------------------------------------------------------------
    
          Dm                      Am           Bb
    e|-----------------------------5------------------------------------|
    B|--------------6---5-----------5-------------3------3--------------|
    G|-------------------5-----------5----------------3--3--------------|
    D|---------0--0---0---------0---------------------------------------|
    A|---3-3h5----------------0-----------0-1--1----1----1--1s3---------|
    E|------------------------------------------------------------------|
    
         Dm                       Am            Bb        F       C
    e|-----------------------------------------------------------------------
    B|--------------6---5------------5h6--5----------------1-1-1-------------
    G|-------------------5-----------------5----------3----------------------
    
  • Que ondas soy alejandro y esta es la tab de 
    la chispa adecuada, esta muy facil, lo unico de mal pez
    es que el bajo no hace casi nada, bueno la afinacion
    es normal (G D A E), BUENO SUERTE.
    
    
    pues el bajo en tra en el minuto 1:33 haciendo esto:
    G----------------------
    D----------------------   (x2)
    A-2/5--5/2-------------        
    E---------2/33--3/55---
    
    luego vuelbe a entrar en el minuto 2:24 haciendo esto:
    G----------------------
    D----------------------   (x4)
    A-2/5--5/2-------------        
    E---------2/33--3/55---
    
    luego viene la parte que no hay voz y el bajo entra un 
    un circulo despues de cuando una guitarra hace una nota
    y jala el tremulo, y hace el solo ese bajo del minuto
    3:15 al 3:32, aqui esta el solo, esta muy corto y muy 
    facil:
    G--------11-------------------11--
    D-0-1212----12--------------------
    A--------------14-12--10/12-------
    E---------------------------------
    
    G----------11------------------11--------
    D-0-12-1212--12-------------------12-
  • Intro:
    G-------------------------------
    D-------------------------------
    A----22/5|----------------------     x4
    E-----------5|-------5h6--------
    
    Versos 1:
    G-------------------------------------------------------
    D-------------------------------------------------------
    A----5—55-55--------------------------------------------
    E------------------5—55-55----7—77-77-------9—99-99-----
    
    Verso 2:
    G------------------------------------------------------
    D------------------------------------------------------
    A---5—55-55------------------------------9—99-99-------
    E----------------5—55-55---7—77-77---------------------
    Aquí  se vuelven a tocar los versos
    
    Verso1
    Verso2
    
    Coro:
    G------------------------------------------------------------
    D------------------------4—44-44--------5-55-55------7—77-77-
    A----------5—55-55-------------------------------------------  x2
    E------------------------------------------------------------
    
    
    Y asi se va toda la canción usteds le ponen el ritmo……
  • +
    ¡Colabora con nosotros!
    Envíanos tu versión de esta canción

Letra de Chispa adecuada (Rarezas)
Aunque yo recomiendo tocarlo como sigue por comodidad
y porque esta es la afinacion mas normal de la guitarra (para no tener que bajar la 6 a re)
Verso:
Las palabras fueron avispas
y las calles como dunas
cuando aún te espero llegar..
de un momento a otro
en un ataud guardo tu tacto y
una corona
con tu pelo enmarañado
queriendo encontrar un
arcoiris infinito
No se distinguir entre besos y
raíces
no se distinguir lo complicado
de lo simple
VERSO:
mis manos que aún son de hueso
y tu vientre sabe a pan
la catedral que es tu cuerpo...
no sera del enemigo
eras verano y mil tormentas, yo
el leon
que sonríe a las paredes
que he vuelto a pintar del
mismo color
No se distinguir entre besos y
raíces
no se distinguir lo complicado
de lo simple
y ahora estas en mi lista de
promesas a olvidar
todo arde si le aplicas la chispa
adecuada
uhhh la chispa adecuada.....
.ahh..oh....ohhh...la chispa adecuada..
uhh...ah...oh...oh.......la chispa adecuada...
uhh ...... la chispa adecuada...
VERSO:
escribe con carbón
y en mi pensamiento,
que cruzamos océanos de tiempo
dibujando los garabatos
de mis fantasías
poco es tanto
cuando poco necesitas
REPITE INTRO
el fuego que era a veces propio
la ceniza siempre ajena
blanca esperma resbalando por
la espina dorsal
ya somos mas viejos y sinceros,
y que mas da
si miramos la 'laguna'
como llaman a la eternidad
de la ausencia
No se distinguir entre besos y
raíces
no se distinguir lo complicado
de lo simple
y ahora estas en mi lista de
promesas a olvidar
todo arde si le aplicas la chispa
adecuada
uhhh la chispa adecuada.....
todo arde ... todo arde.. uhhhhh
. y si le aplicas.... y si le aplicas...
la chispa adecuada...




[Chispa adecuada (Rarezas) chords][Chispa adecuada (Rarezas) cifra]
© LaCuerda.net · aviso legal · privacidad · es · en · pt · contacto