Acordes de Guitarra » H »Héroes del Silencio » Acústica 1993 (Tab)

Acústica 1993
Héroes del Silencio

Letras, Notas, Punteos, Tablaturas y Acordes de Guitarra (Tabs & Chords)

  • Letra y Acordes
    G  D
    G  D
    G  D
    G  C  D  G
    
    parte 2
    
    A  G  D
    
    la parte de D es la siguiente:
    
    e--0--2--0--2-------------------------------------------------------------|
    b--3--3--3--3-------------------------------------------------------------|
    g--2--2--2--2-------------------------------------------------------------|
    d-------------------------------------------------------------------------|
    a-------------------------------------------------------------------------|
    e-------------------------------------------------------------------------|
    
    NOTA:
          primero se rasguea un D y lego se hace lo anterior.
    
  • Tab p/Bajo
    Esta es, segun yo, la estructura de la cancion, espero
    le entiendan, ya que como no hay letra van a tener que
    seguirlo asi.
    
    
    
    RIFF1
    G: ----------3 VECES-------------------------
    D: -5-5------------------5-5--------5-5------
    A: -----5-5--5--5-5-----------3-3--------5-5-
    E: ------------------------------------------
    
    
    RIFF2
    G: ---------------------------------------------------------------
    D: ----3/5------------1/2--0-0--------3/5--------5-5-----5 5------
    A: --------5-5-----------------------------5-5-------3-3------5-5-
    E: -3------------3-3------------3-3-------------------------------
    
    
    RIFF3
    G: ------------------------------------------
    D: --------3-VECES------5-5------5-5---------
    A: ------------5-5----------3-3------5-5-----
    E: -5-5---3-3--------------------------------
    
    
    RIFF4
    G: ------4-5-4-2-0--------------------------------------- 
    D: -5*7------------3--3-2-0------------------*=LIGADO----
    A: --------------------------3-2-0-----------------------
    E
  • +
    ¡Colabora con nosotros!
    Envíanos tu versión de esta canción

Letra de Acústica 1993
parte 2
la parte de D es la siguiente:
primero se rasguea un D y lego se hace lo anterior.
Escuchando la canción te saldrá mejor.



© LaCuerda.net · Aviso Legal · Privacidad