Acordes de Guitarra » F »Fito Paez » Yo vengo a ofrecer mi corazón (Tab)

Yo vengo a ofrecer mi corazón
Fito Paez

Letras, Acordes y Tabs para Guitarra, Bajo y Ukulele

  • INTRO: Em  Em/D  Cmaj7  Bm7  Am  B7-4  B7  Em
    
    
    
     Em             Em/D         Cmaj7  Bm7          
    ¿Quién dijo que todo está perdido?  
    Am          B7-4 B7     Em
    yo vengo a ofrecer mi corazón,
    Em    Em/D          Cmaj7          Bm7
    tanta sangre que se llevó el río,  
    Am          B7-4 B7     Em    B7               
    yo vengo a ofrecer mi corazón. 
    
    
    
              Am        Bm       Em
    No será tan fácil, ya sé qué pasa,
                Am       Bm      Em
    no será tan simple como pensaba,
                  Am        Bm        Em
    
  • Em             D6         Cmaj7    Bm7
    Quién dijo que todo está perdido
     Am7          Bm7          Esus4 Em
    yo vengo a ofrecer mi corazón
    Em           D6              Cmaj7  Bm7
    tanta sangre que se llevó el río
    Am7          Bm7          Esus4
    yo vengo a ofrecer mi corazón
    
    
                 Am7      Bm7     D/E
    No será tan fácil, ya sé qué pasa
                Am7     Bm7    D/E  Em7
    no será tan simple como pensaba
                  Am7        Bm7    Cmaj7
    como abrir el pecho y sacar el alma
    F#m7/11               B7/#9-B9  B7
      una cuchillada de amor
    
    
    
  • INTRO: Em7  Bm7/A  C7   D  Am47y9  Bm7y4  E4
    
    
    Así es el arpegio de los acordes, el cual es el mismo para los versos:
    
    e|---------7--------7--------7---------7--------7-----------7----
    B|-----8---------8--------7---------7--------8----------8--------
    G|-----7---------7--------7---------7--------9----------9--------
    D|------------------------------------------10------10-----------
    A|-----7------7-----------0------0-------------------------------
    E|---------------------------------------------------------------
    
    
    e| ----5--------5-------3-------3-------2-------2----------
    B|--7--------7-------0-------0-------3-------3-------0-----
    G|--7--------7-------5-------5-------2-------2-------2-----
    D|--0-----0------------------------------------------2-----
    A|-------------------0-----0---------2-----2---------2-----
    E|---------------------------------------------------------
    
    
  • quiero decirles que esta cancion es un vals es decir k va 3/4
    y el bajo es muy importante, asi k deben saber llebarlo, esperar
    el primer tiempo y los otros dos marcarlos kn la nota osea k
    los k van a marcar son 2 y 3 el 1 no
    
    G|----------------------------------|
    D|----------------------------------|  -verso-
    A|--77--55--33--22--00--22----------|
    E|--------------------------00--00--|
    
    primer cambio:
    
    G|------------------|------------------|
    D|---------------2--|---------------2--|
    A|--0--02------2----|--0--02------2----|
    E|---------0--------|---------0--------|
    
    
    G|---------------------|------------------|
    D|---------------------|------------------|
    A|--0--02--3--2--0-----|----------22--22--|
    E|------------------3--|--22--22----------|
    
    
    segundo cambio:
    
    aki solo se marcan las notas despues del segundo verso
    
    
    G|------------------|
    D|------------------| -(x2)-
    A|--00--22----------|
    E|----------00--00--|
    
    G|-------------------|------------------|
    D|-------------------|------------------
  • A
      / 8  8  8  8  8 (8) 7 (7) 7  7
      / 7  7  7  7  7 (7)(6) 6 (6)
      / 8  8  8  8  8 (8) 7 (7) 7  7
      / 7 (5)(5) 7  7 (8)(7) 7 (6)
    
    B
      /(6)(7) 7 (6)(10)9  9  9  9  9 (10)9
      /(6)(7) 7 (6)(10)9  9  9 10(10)(10)9
      /(6)(7) 7 (6)(10)9 (9) 9  9  8 (10)9
      / 8  8  8  8  8(10) 8  8  8
    
    A B A B A
  • Este tema de Fito tiene por regla la misma sucesión de acordes. A lo
    sumo puedo recomendar el cambio de la estructura de los acordes, así
    como el uso de 7mas casi todo el tiempo, ya que no dificultan en lo
    particular la linea melódica.
    
    INTRO: Em  Re6 Cmaj7  Bm7  Am  Bm7  Esus4  Em
    
    
    
     Em             D6         Cmaj7  Bm7
    ¿Quién dijo que todo está perdido?
    Am7         Bm7          Esus4 Em
    yo vengo a ofrecer mi corazón,
    Em           D6          Cmaj7   Bm7
    tanta sangre que se llevó el río,
    Am7         Bm7           Esus    B7
    yo vengo a ofrecer mi corazón.
    
    
                Am7        Bm7      D/E (Esus4-7-9)
    No será tan fácil, ya sé qué pasa,
                Am7       Bm7      D/E - Em7
    no será tan simple como pensaba,
                  Am7        Bm7    Cmaj7
    como abrir el pecho y sacar el alma,
    F#m7/11               B7/#9-b9   -B7
      una cuchillada de amor.
    
    
    Em             D6           Cmaj7  Bm7
    Luna de los pobres siempre abierta,
    Am7         Bm7           Esus4 - Em
    yo vengo a 
  • esta version es el punteo para tocar
    si quieren canten pero no es el acompañamiento.
    
    IMPORTANTE:   (G=SOL MAYOR)
    
    SI  SI  SI SI SI    LA G  FA# G  MI
    ¿Quién dijo que todo está perdido?
    
    
    G  G   G  G  G   LA  FA#  G  MI
    yo vengo a ofrecer mi corazón,
    
    
    tanta sangre que se llevó el río,
    yo vengo a ofrecer mi corazón.
    
    
    MI FA# G  MI MI RE RE RE RE RE MI
    No será tan fácil, ya sé qué pasa,
    
    
    MI FA# G  MI MI RE RE  G  FA# MI RE
    no será tan simple como pensaba,
    
    MI FA# G MI  MI RE RE RE RE RE  MI
    como abrir el pecho y sacar el alma,
    
    SI SI SI SI SI MI SI SI SI
    una cuchillada del amor.
    
    
    -----------AHORA SIGUE IGUAL------
    
    
    Luna de los pobres siempre abierta,
    yo vengo a ofrecer mi corazón,
    como un documento inalterable
    yo vengo a ofrecer mi corazón.
    
    Y uniré las puntas de un mismo lazo,
    y me iré tranquilo, me iré despacio,
    y te daré todo, y me darás algo,
    algo que me alivie un poco más.
    
    Cuando no haya nadie cerca o lejos,
    yo vengo a ofrecer mi corazón.
    cuando los satél
  • +
    ¡Colabora con nosotros!
    Envíanos tu versión de esta canción

Letra de Yo vengo a ofrecer mi corazón
¿Quién dijo que todo está perdido?
yo vengo a ofrecer mi corazón,
tanta sangre que se llevó el río,
yo vengo a ofrecer mi corazón.
No será tan fácil, ya sé qué pasa,
no será tan simple como pensaba,
como abrir el pecho y sacar el alma,
una cuchillada del amor.

Luna de los pobres siempre abierta,
yo vengo a ofrecer mi corazón,
como un documento inalterable
yo vengo a ofrecer mi corazón.

Y uniré las puntas de un mismo lazo,
y me iré tranquilo, me iré despacio,
y te daré todo, y me darás algo,
algo que me alivie un poco más.

Cuando no haya nadie cerca o lejos,
yo vengo a ofrecer mi corazón.
cuando los satélites no alcancen,
yo vengo a ofrecer mi corazón.

Y hablo de países y de esperanzas,
hablo por la vida, hablo por la nada,
hablo de cambiar ésta, nuestra casa,
de cambiarla por cambiar, nomás.

¿Quién dijo que todo está perdido?
yo vengo a ofrecer mi corazón.




[Yo vengo a ofrecer mi corazón chords][Yo vengo a ofrecer mi corazón cifra]
© LaCuerda.net · aviso legal · privacidad · es · en · pt · contacto