Acordes de Guitarra » F »Fito Paez » Giros (Tab)

Giros
Fito Paez

Letras, Acordes y Tabs para Guitarra, Bajo y Ukulele

  • Gm7               Cm7                   Eb7 
    Giros, existe un cielo y un estado de coma
           Dm7                  Cm7  Adim7 D7/9 
    cambia el entorno de persona a persona.
    Gm7               Cm7                         Eb7   Gm7
    Giros, dar media vuelta y ver qué pasa allá afuera
                Dm7                Gm7
    no todo el mundo tiene primaveras.
    
    Gm9
    Flaco, ¿Dónde estás?
    Estoy imaginándome otro lugar
         Cm9
    estoy juntando información
        Adim7  Dm7/9    Gm9
    estoy queriendo ser otro
    (otro tipo).
    
    Mi necesidad se va modificando con los demás
    así mi luna llega a vos
    
  • Gm7
    giros
               Cm7                 Ebmaj7
    existe un cielo y un estado de coma
                 D7/#9               Cm7    D7/#9-B9
    cambia el entorno de persona a persona
    
    Gm7
    giros
                                           Ebmaj7
    dar media vuelta a ver que pasa alla afuera
                 D7/#9-B9         Gm7
    no todo el mundo tiene primaveras
    
    Gm7
      flaco,¿donde estas?
                 Gm7
    estoy imaginandome otro lugar
                       Cm7
    estoy juntando informacion
    
  • e|-----------------------|----------------------------|
    B|---------6-6-----------|----------------------------|
    G|-7------5---8-7-5-7-7--|--------------------5h7-5---|
    D|--5--5-8---------8---5-|-3-3h5-5-3--8-8-7-8------8-7|
    A|-----------------------|----------------------------|
    E|-----------------------|----------------------------|
    
    Gm7
    giros
               Cm7                 Ebmaj7
    existe un cielo y un estado de coma
                 D7/#9               Cm7    D7/#9-B9
    cambia el entorno de persona a persona
    
    Gm7
    giros
                                           Ebmaj7
    dar media vuelta a ver que pasa alla afuera
                 D7/#9-B9         Gm7
    no todo el mundo tiene primaveras
    
  • e|-------------------------------|
    B|-------------6-6-4-3-----3-3---|
    G|-5h7-------3---------5-3-------|
    D|-----5---5-------------------5-|
    A|-------5-----------------------|
    E|-------------------------------|
    
    e|-------------------------------|
    B|--------------------1h3-1------|
    G|------------3-3-----------3/5--|
    D|-3-5-5-3-5--5-5-3-5------------|
    A|-------------------------------|
    E|-------------------------------|
    
    [Estrofa 1]
    
    e|-------------------------------|
    B|-------------6-6-4-3-----3-3---|
    G|-5h7-------3---------5-3-------|
    D|-----5---5-------------------5-|
    
  • +
    ¡Colabora con nosotros!
    Envíanos tu versión de esta canción

Letra de Giros
Giros, existe un cielo y un estado de coma
cambia el entorno de persona a persona.
Giros, dar media vuelta y ver qué pasa allá afuera
no todo el mundo tiene primaveras.
Flaco, ¿Dónde estás?
Estoy imaginándome otro lugar
estoy juntando información
estoy queriendo ser otro
(otro tipo).
Mi necesidad se va modificando con los demás
así mi luna llega a vos
así yo llego a tu luna.
Giros, todo da vueltas como una gran pelota
todo da vueltas casi ni se nota.
Giros, fotografías de distintos lugares
fotográficamente tan distantes.
Suena un bandoneón,
parece de otro tipo pero soy yo
que sigo caminando igual
silbando un tango oxidado.




[Giros chords][Giros cifra]
© LaCuerda.net · aviso legal · privacidad · es · en · pt · contacto