Acordes de Guitarra » F »Fito Paez » 11 y 6 (Tab)

11 y 6
Fito Paez

Letras, Acordes y Tabs para Guitarra, Bajo y Ukulele

  • Intro: G F#m7b5 B Em G/D C#m7b5 Cm G/B Dsus4  x2
           G C/G x2 G C/D
    
    
             G                     F#m7b5   B7
    En un cafe se vieron por casualidad
       Em         G/D       C#m7b5
    cansados en el alma de tanto andar
    Cm     G/B     Am7       Dsus4
    ella tenia un clavel en mano.
    
              G                        F#m7b5  B7
    El se acerco, le pregunto si andaba bien
       Em          G/D              C#m7b5
    llegaba a la ventana en puntas de pie
           Am7                  Dsus4
    y la llevo a caminar por Corrientes
    
    Cmaj7   Bm7   Em7    Cmaj7 Bm7  Em7
    Mi ---  ren   todos,    Ellos solos
    
  • SOL   LAm/FA# SI7
    MIm    MIm/RE   MIm/DO#
    DOm   SOL LAm7   REsus4 RE
    SOL DOadd9 SOL DOadd9 SOL DOadd9 SOL DOadd9
    
             SOL                   LAm/FA# SI7
    En un cafe se vieron por casualidad
       MIm        MIm/RE     MIm/DO#
    cansados en el alma de tanto andar
    DOm    SOL   LAm7      REsus4 RE
    ella tenia un clavel en mano.
    
              SOL                      LAm/FA# SI7
    El se acerco, le pregunto si andaba bien
       MIm         MIm/RE            MIm/DO#
    llegaba a la ventana en puntas de pie
           LAm7                 REsus4  RE
    y la llevo a caminar por Corrientes
    
    DOmaj7  SIm7  MIm7      DOmaj7 SIm7 MIm7
    
  •          G                     Am/F#   B7/b5
    En un cafe se vieron por casualidad
       Em         Em/D       Em/C#
    cansados en el alma de tanto andar
    Cm     G     Am7       Dsus4
    ella tenia un clavel en mano.
    
              G                        Am/F#  B7/b5
    El se acerco, le pregunto si andaba bien
       Em          Em/D              Em/C#
    llegaba a la ventana en puntas de pie
           Am7                  Dsus4
    y la llevo a caminar por Corrientes
    
    Cmaj7   Bm7   Em7       Cmaj7  Bm7  Em7
    MI ---  ren   todos,    E ---- llos solos
    Cmaj7  B7  Em        A7
    pue -- den mas que el amor
               Am7                 Dsus4
    y son mas fuertes que el Olimpo
    
  •          G                         F#m7(b5)   B7
    En un cafe se vieron por casualidad
       Em         Em7       A7
    cansados en el alma de tanto andar
    Cm7     Gadd9     Am7       Dsus4   
    ella tenia un clavel en mano.
    
              G                             F#m7(b5)  B7   
    El se acerco, le pregunto si andaba bien
       Em          Em7              A7
    llegaba a la ventana en puntas de pie
           Am7                  Dsus4    G7
    y la llevo a caminar por Corrientes
    
    Cadd9   Bm7   Em7   G7  Cadd9  Bm7  Em7  G7 
    MI ---  ren   todos,    E ---- llos solos
    Cadd9  B7  Em        A7
    pue -- den mas que el amor
               Am7                 Dsus4  G7
    y son mas fuertes que el Olimpo
    
  •       G                F#dim7  Bm7
    En un cafe se vieron por casualidad
    
    Em         Em7        Em6
    cansados en el alma de tanto andar
    
    Cm      G      Am7      Dsus4 D
    ella tenia un clavel en mano.
    
    
    
              G                        F#dim7 Bm7
    El se acerco, le pregunto si andaba bien
    
     Em         Em7        Em6
    llegaba a la ventana en puntas de pie
    
           Am7                   Dsus4 D
    y la llevo a caminar por Corrientes
    
    
  • e|-----------------------------2-3-3/7-----------------3---|
    B|----------3-1-0-0h1p0----------------6/8----0-3h4p3------|
    G|------0-2------------2-0----------------6/9--------5---5-|
    D|-0-2-4-------------------4-5-----------------------------|
    A|---------------------------------------------------------|
    E|---------------------------------------------------------|
    
    e|-------------------------------|
    B|-0-0h1p0-----------------------|
    G|--------2-0--------------------|
    D|------------2--5-4-5-4-5-4-2-1-|
    A|-------------------------------|
    E|-------------------------------|
    
      G          F#m7(b5)-B7   Em  E/D C#m7b5       Cm7    G/B
    e|-----------------------------2-3-3/7-----------------3---|
    B|----------3-1-0-0h1p0----------------6/8----0-3h4p3------|
    G|------0-2------------2-0----------------6/9--------5---5-|
    D|-0-2-4-------------------4-5-----------------------------|
    A|---------------------------------------------------------|
    
  • Author/Artist: Fito Paez
    Title: 11 y 6
    Album: Euforia
    Transcribed by: Cesar Andres Forero Diaz
    Email: okter@hotmail.com
    
    Aca va la version corregida
    de esta hermosa cancion espero que la disfruten...
    
    ------------10-8-7-8-7------------9-10-|-14|-8-7-5-7-8-7--10-8-
    -----7-8-10------------10-8---7-8------|----|------------10-----
    -7-9-----------------------------------|----|-------------------
    ---------------------------------------|----|-------------------
    ---------------------------------------|----|-------------------
    ---------------------------------------|----|-------------------
    
    -7-8-7-------------------------------|-|-|-|--------------------
    -------10--8-7--8-7-8-7-8-7----------|-|-|-|--------------------
    -----------------------------9--7----|-|-|-|--------------------
    -------------------------------------|-|-|-|--------------------
    -------------------------------------|-|-|-|--------------------
    -------------------------------------|-|-|-|--------------------
    
    Se repite una vez
    
  • Acontinuación verán una modificación para piano (en vivo de Fito)
    de la transcrpción de acordes mas votada de esta canción.
    Desde ya les comento que si tienen paciencia para asimilar esta
    transcripción les va a quedar muy bien.
    
    En los versos donde la voz se acompaña con notas, el primer
    renglón representa el acorde, el segundo representa dichas notas
    y el tercero la letra en cuestión.
    _____________ ___________________________________________________
    DEDOS:       | TECLAS:                                           |
    pulgar=p     | las teclas blancas a ser   las teclas negras      |
    índice=i     | tocadas se veran asi:      a ser tocadas se veran |
    mayor=M      | | U U | nota D             asi:   | Ú U | nota C# |
    anular=a     | | |.| |                           | | | |         |
    meñique=m    |                                                   |
    _____________|___________________________________________________|
    *          G                         F#m7   B7
    D  G  B d  D  G  
  • +
    ¡Colabora con nosotros!
    Envíanos tu versión de esta canción
  • Tutorial
    Acordes Letra 11 y 6 Cómo tocar con guitarra Tutorial Tablatura Cover acústico fito paez
    2:31
  • Tutorial
    11 y 6 - FITO PÁEZ (acordes)
    4:49
  • Tutorial
    HD
    Explicado - Como tocar "11 y 6" de Fito Paez en el bajo tutorial#123
    9:48

Letra de 11 y 6
En un cafe se vieron por casualidad
cansados en el alma de tanto andar
ella tenia un clavel en mano.
El se acerco, le pregunto si andaba bien
llegaba a la ventana en puntas de pie
y la llevo a caminar por Corrientes
y son mas fuertes que el Olimpo
Se escondieron
en el centro
y en el baño de un bar
sellaron todo con un beso.
Durante un mes vendieron rosas en La Paz
presiento que no importaba nada mas
y enre los dos juntaban algo.
No se por que pero jamas los volvi a ver
el carga con 11 y ella con 6
y si se reia, el le daba la luna.
y son mas fuertes que el Olimpo
Se escondieron
en el centro
y en el baño de un bar
sellaron todo con un beso.




[11 y 6 chords][11 y 6 cifra]
© LaCuerda.net · aviso legal · privacidad · es · en · pt · contacto