Tablatura para Bajo de Fito Paez: Yo vengo a ofrecer mi corazón
Conexión · Inscripción
Letras y Acordes
Pantalla Completa
Imprimir
Versión Texto
Añadir Favorito
Otras Versiones

Mostrar Diagramas
Desfile Automático
Formato del Texto


Yo vengo a ofrecer mi corazón(BAJ)

Fito Paez

calidad:
fito0536
AUTOR: Fito Paez
ALBUM: Musicos Poetas y Locos (1985)
Enviado por Sebastian
quiero decirles que esta cancion es un vals es decir k va 3/4
y el bajo es muy importante, asi k deben saber llebarlo, esperar
el primer tiempo y los otros dos marcarlos kn la nota osea k
los k van a marcar son 2 y 3 el 1 no

G|----------------------------------|
D|----------------------------------|  -verso-
A|--77--55--33--22--00--22----------|
E|--------------------------00--00--|

primer cambio:

G|------------------|------------------|
D|---------------2--|---------------2--|
A|--0--02------2----|--0--02------2----|
E|---------0--------|---------0--------|


G|---------------------|------------------|
D|---------------------|------------------|
A|--0--02--3--2--0-----|----------22--22--|
E|------------------3--|--22--22----------|


segundo cambio:

aki solo se marcan las notas despues del segundo verso


G|------------------|
D|------------------| -(x2)-
A|--00--22----------|
E|----------00--00--|

G|-------------------|------------------|
D|-------------------|------------------|
A|--00--22--3-2-0----|----------22--22--|
E|----------------3--|--22--22----------|


esa es toda la cancion ahi k saber dond entrar y si no pueden
escuchen mucho la rola eso les va a ayudar bastante, la tab
esta perfecta y al final solo marca el mi en ese mismo compas,
el mi mas grave osea la cuerda mas gruesa jeje, chau...
Este fichero es trabajo propio de su transcriptor y representa su interpretación personal de la canción. El material contenido en esta página es
para exclusivo uso privado, por lo que se prohibe su reproducción o retransmisión, así como su uso para fines comerciales.

© LaCuerda.net · Aviso Legal · Privacidad