Acordes de Guitarra » F »Fito Paez » Mariposa Tecknicolor (Tab)

Mariposa Tecknicolor
Fito Paez

  • Letra y Acordes
    Intro: B B/A Eadd9/G# Emadd9/G
           C#m7 B/D# E C#7/E#
           C#m7 B/D# F#m7
    
      B                D#m
    Todas las mañanas que viví
            C#m                  F#7
    todas las calles donde me escondí
      C#m                 F#7
    el encantamiento de un amor
                          B
    el sacrificio de mis padres,
           F#        E
    los zapatos de charol.
    
      B              D#m
    Los domingos en el club
            C#m                 F#7
    salvo que Cristo sigue allí en la cruz
     C#m                F#7
    
  • Letra y Acordes
           C#m7 B/D# E C#7/E#
           C#m7 B/D# F#m7
    
    B                      D#m7
    Todas las mañanas que viví,
             C#m7                F#sus4 F#7
    todas las calles donde me escondí
    F#7sus4                 F#7
    el encantamiento de un amor,
                         B                         E
    el sacrificio de mis madres, los zapatos de charol.
    
    Los domingos en el club,
    salvo que Cristo sigue allí en la cruz,
    las columnas de la catedral,
    y la tribuna grita gol, el lunes por la Capital.
    
    
    B    F#/A#    G#m   G#m7/F#
    Todos yiran y yiran,
    
  • Letra y Acordes
    G Bm Am D
    Am D G D Em
    
    G                      Bm
    Todas las mañanas que viví
    Am                             D
    todas las calles donde me escondí
    Am                      D
    el encantamiento de un amor
                            G
    el sacrificio de mis madres
          D          Em
    los zapatos de charol
    
    G                   Bm
    los domingos en el club
    Am                        D
    salvo que cristo sigue allí en la cruz
    Am                      D
    las columnas de la catedral y la tribuna
    
  • Tablatura
    todas la mañanas....
    E/----------------------------------------------------
    b/----------------------------------------------------
    g/----------------------------------------------------
    d/5-5-5-5-5-3-2-3-5---2-3-3-3-2--2-3------------------
    a/-----------------3-5---------5----------------------
    e/----------------------------------------------------
    
    el encanta....
    E/----------------------------------------------------
    b/----------------------------------------------------
    g/----------------------------------------------------
    d/3-3-3-3-3-2----------------3-2-2-2-3-2--------------
    a/-----------5-3-2-2-2-0--2-5-----------5-3-2-5-3-----
    e/----------------------3-----------------------------
    
    los domin....
    E/----------------------------------------------------
    b/----------------------------------------------------
    g/--4-------------------------------------------------
    d/5---5-3-2-5-3---2-3-3-3-2--3-2----------------------
    a/-------------3-5---------5--------------------------
    e/----------
  • Tablatura
    E|----------------------------------------------------
    b|----------------------------------------------------
    g|0-0-0-0-0-------0--------0--------------------------
    d|----------3-2-3----0-2-3---3-2-0-2-3----------------
    a|-----------------3----------------------------------
    e|----------------------------------------------------
    
    El encantamiento de un amor el sacrificio de mis madres los zapatos de charol
    
    E|----------------------------------------------------
    b|----------------------------------------------------
    g|----------------------------------------------------
    d|3-3-3-3-3-2-0-------------0-3-2-2-2-3-2-0-----------
    a|--------------3-2-2-2-0--2---------------3-2-3------
    e|-----------------------3----------------------------
    
    Los domingos en el club salvo que cristo sigue allí en la cruz
    
    E|----------------------------------------------------
    b|----------------------------------------------------
    
  • Tablatura
    e|-----------15(3)------  los numeros k estan entre parentesis
    b|------15(3)-----15(3)-  son las mismas notas k las k no estan
    g|----------------------  entre parentesis, solo k a una 8ª....
    d|-17(5)----------------  ...dgamos k si lo vas tcar en electrica,
    a|----------------------  tocas las notas k estan fuera de
    e|----------------------  parentesis y si tocan en acustica, toca
      (repetir cuatro veces)     las k estan dentro del parentesis
    
    
    e|-----------------------------------------|
    b|-15(3)-----------------------------------|
    g|-------17(5)-16(4)-17(5)-16(4)-----------|
    d|------------------------------17(5)------|
    a|-----------------------------------17(5)-|
    e|-----------------------------------------|
    
    
    e|-------------------------------------------|
    b|-15(3)-------------------------------------|
    g|------17(5)-16(4)-17(5)-16(4)--------------|
    
  • Tab p/Bajo
    Las notas entre paréntesis son "notas fantasmas",
    con auriculares se escuchan.
    
    Intro
    
    G|--------------------------------------|
    D|-----------1-2-3---1------------------|
    A|-2-0-----4-------4--------------------|
    E|-----4-3-------------2-2-2-2-2-2-2-2--|
    
    Verso "Todas las mañanas..."
    
    G|---------------------------------------------------------------|
    D|-----------------1-1-1-1-1-1-1-1-----------1-------------------|
    A|-2-2-2-2-2-2-2-4-----------------4-4-4-4-4---4-1---------------|
    E|-------------------------------------------------2-2-2-2-2-2-2-|
    
    G|---------------------------------------------------------------4-|
    D|---4-4-4-4-4-4-4-------------------------------1---2-2-2-2-4h6---|
    A|-4---------------4-------------1---2-2-2-2-2-4---2---------------|
    E|-------------------1h2-2-1h2-4---2-------------------------------|
    
    "Los domingos en el club..."
    
    G|-----------------------------------------------------------------|
    D|-----------------1-1-1-1-1-1-1-1---------------------------------
  • Armónica
    Aca les envio Mariposa Technicolor de Fito Paez sacada en la armonica de DO (C) y esta tal cual.
    Cualquier duda mandenmela a mi correo.
    
    6 6 6 6 6 6 6 (5) 5 (5) 6 Semi largo
    Todas la mañanas que vivi....
    
    
    4 (4) 5 (5) (5) (5) 5 (4) 5 (5) Semi largo
    Todas las tardes donde me escondi.....
    
    (5) (5) (5) (5) (5) 5 (4) 4 (4) (4) (4) 4 (3) (3)
    El encantamiento de un lugar en sacrificio......
    
    
    4 (5) 5 5 5 (5) 5 (4) 4 (3) (4) 4 Semi largo
    De mis padres los zapatos de charol.......
    
    
    5 5 5 (4) 4 (4) 4                (5) (5) (5) 5 (4) 5 (4)
    Todos yiran y yiran...           Todos bajo el sol.....
    
    
    
    5 5 5 (4) 4 (4) 4                 3 (5) 5 (4) 4 (3) (4) 4 Largo
    Se proyecta la vida..             Mariposa technicolor......
    
    
    Un saludo para todo Quiroga en especial para Juan Pablo que esta aprendiendo a tocar la guitara.
  • Piano (Teclados)
    Mi nombre es Marcos y espero que entiendan mi modo de expresarme,
    de no ser así revisen mi transcripción de la canción 11 y 6 o
    comuniquense conmigo.
    
    ___ ___________________________________________________
     M | TECLAS:                                           |
     A | las teclas blancas a ser   las teclas negras      |
     R | tocadas se veran asi:      a ser tocadas se veran |
     C | | U U | nota D             asi:   | * U | nota C# |
     O | | |.| |                           | | | |         |
     S |                                                   |
    ___|___________________________________________________|
    Las notas se leen de arriba hacia abajo, tocando las notas que
    esten en el renglón.
    Como ven mas abajo en la Intro en el primer renglon dice:
                   b    d#  f#
    Quiere decir que esas 3 notas se tocan juntas y se sigue leyendo
    siempre hacia abajo
    ------------------------------------------------------------------
    
    INTRO (opcional)
    
      ________________________________________________
  • +
    ¡Colabora con nosotros!
    Envíanos tu versión de esta canción
  • Tutorial
    HD
    Explicado - Como tocar "Mariposa tecknicolor" de Fito Paez en el bajo tutorial#122
    15:57

Letra de Mariposa Tecknicolor
Todas las mañanas que viví
todas las calles donde me escondí
el encantamiento de un amor
el sacrificio de mis padres,
los zapatos de charol.
Los domingos en el club
salvo que Cristo sigue allí en la cruz
las columnas de la catedral
y la tribuna grita gol,
el lunes por la Capital.
Todos yiran y yiran
todos bajo el sol
se proyecta la vida
mariposa tecknicolor.
Cada vez que me miras
cada sensación
se proyecta la vida
mariposa tecknicolor.
Vi sus caras de resignación
los vi felices, llenos de dolor
ellas cocinaban el arroz, el levantaba
sus principios de sutil emperador.
Todo al fin se sucedió,
la melancolía de morir en este mundo
y de vivir sin una estúpida razón.
Todos yiran y yiran
todos bajo el sol
se proyecta la vida
mariposa tecknicolor.
Cada vez que me miras
cada sensación
se proyecta la vida
mariposa tecknicolor.
Yo te conozco de antes
desde antes del ayer
yo te conozco de antes
cuando me fui no me alejé.
Llevo la voz cantante
llevo la luz del tren
llevo un destino errante
llevo tus marcas en mi piel.
Y hoy solo te vuelvo a ver..
y hoy solo te vuelvo a ver..
y hoy solo te vuelvo
Estrofa Acordes x 2



© LaCuerda.net · aviso legal · privacidad · contacto