Acordes de Guitarra » F »Fito & Fitipaldis » Trapos sucios (Tab)

Trapos sucios
Fito & Fitipaldis

Letras, Notas, Punteos, Tablaturas y Acordes de Guitarra (Tabs & Chords)

  • Letra y Acordes
    E----O-------------3-----2---/
    A--------2----0--------------/
    D----------------------------/        MIm-DO-SI7
    G----------------------------/
    B----------------------------/
    E----------------------------/
    
    MIm              DO        SI7
    conozco un distinguido señor
                  MIm            DO       SI7
    de esos que creen tener siempre la razon
    MIm          DO        SI7
    es un hombre muy respetado
             MIm            DO           SI7
    su foto cuelga en la pared de un despacho
    -------------------------estribillo
    DO
      confunde el blanco con el negro
    MIm
      y asi le luce siempre el pelo
    
  • Tab p/Bajo
    Intro bajo:
    G------------------
    D------------------
    A---1-0------------
    E-0-----3-2--------
    
    Ya con el punteo de guitarra y la letra va haciendo esto:
    
    --------------------------------------------
    --------------------------------------------
    ------3-0-3-2-0------------3-5-3-2-0--------
    -0000-----------3-2--00000-----------3-2----
    
    --------------------------------------------
    --------------------------------------------
    ------3-0-3-2-0------------3-5-3-2-4-5-6----
    -0000-----------3-2--00000------------------
    
    Confunde el blanco con el negro...
    --------------------------------------------
    ----2-5-2----2-5-2----2-5-2---2-5-2---------
    --3-------23--------4-------4---------------
    --------------------------------------------
    
    Y su ambición  La esconde en un cajón
    --------------------------------------------
    --------------------------------------------
    -0-2-2-2-----------2-----0------------------
    -----------------0------------3--2--0-------
    
    A partir de aqui se vuelve a repetir este esquema
  • +
    ¡Colabora con nosotros!
    Envíanos tu versión de esta canción

Letra de Trapos sucios
conozco un distinguido señor
de esos que creen tener siempre la razon
es un hombre muy respetado
su foto cuelga en la pared de un despacho
confunde el blanco con el negro
y asi le luce siempre el pelo
y su ambicion la esconde en un cajon
siempre guarda la compostura
aunque dicen que a su mujer la tortura
pero no creen que sea un mal tipo
porque va a misa todos los domingos
quiere subir muy deprisa
y si le estorbas te aplasta, te pisa
mira al mundo detras de un puro
no reconoce tener trapos sucio
a mi me suena bien pero pa algun comentario ahi ariiba
teneis mi e-mail.dedicada pal fran

Videos de Trapos sucios
[ver más videos]

[ver todas las canciones]


© LaCuerda.net · Aviso Legal · Privacidad