Tablatura para Bajo de Fito & Fitipaldis: Ojos de serpiente
Conexión · Inscripción
Letras y Acordes
Pantalla Completa
Imprimir
Versión Texto
Añadir Favorito
Otras Versiones

Mostrar Diagramas
Desfile Automático
Formato del Texto


Ojos de serpiente(BAJ)

Fito & Fitipaldis

calidad:
f_fi0262
AUTOR: Fito cabrales
ALBUM: A puerta cerrada (1998)
Enviado por Miguel
Sol:


G /-----------------------------------
D /-----------------------------------
A /-------------5-4-3-------5-------
E /-----3---6-----------6------------
B /-----------------------------------

Do:

G /------------------------------------
D /------------5-4-3------5----------
A /------3--6---------6---------------
E /------------------------------------
B /------------------------------------



Re#:

G /-------------------7-6-5----------
D /----------5-8-5-------------------
A /-------6---------------------------
E /------------------------------------
B /------------------------------------

Re:
G /-----------------------4--5--7----
D /--------------4-5-7---------------
A /------5--7-------------------------
E /-----------------------------------
B /--------------------------------------


Do ( Otro):

G /------5-3-----------------------------
D /-----------5-4-3-----------------------
A /-------------------6-3---------------
E /------------------------------------
B /------------------------------------

INTRO:
G, G, C, G, D#, D, G

SOLO SAXOFÓN:
/G/ C, G , D#, D, D#, D, D#, D//  G...

ESTROFA:
G, C, F /G/  x2

OTRO:
C, D C G x2   G, A# D

ESTRIBILLO:
C, D, C /G/  x2
D#

estructura:

INTRO
ESTROFA
ESTRIBILLO
(G)
ESTROFA
ESTRIBILLO
SOLO SAXO
ESTROFA
OTRO ( siempre q me encuentro mal...)
Este fichero es trabajo propio de su transcriptor y representa su interpretación personal de la canción. El material contenido en esta página es
para exclusivo uso privado, por lo que se prohibe su reproducción o retransmisión, así como su uso para fines comerciales.

© LaCuerda.net · Aviso Legal · Privacidad