Acordes de Guitarra » F »Fito & Fitipaldis » Medalla de cartón (Tab)

Medalla de cartón
Fito & Fitipaldis

Letras, Notas, Punteos, Tablaturas y Acordes de Guitarra (Tabs & Chords)

  • Letra y Acordes
    intro: SOLm FA RE# (x 8)
    
    SOLm                FA   RE#        SOLm FA RE#
      Nunca se empieza una batalla tarde,
    SOLm                 FA    RE#     SOLm FA RE#
      las penas siempre llegan enseguida.
    SOLm                FA   RE#      SOLm FA RE#
       Tú siempre pides para nunca darme,
    SOLm           FA       RE#       SOLm FA RE#
      yo sólo pido lo que tú me quitas.
    
    LA#                FA          SOLm
      Y el cielo que revienta de repente
    LA#                RE#    FA (agudo)   FA (grave)
      como un infierno que llegó         deprisa,
    RE#               FA            SOLm
      guerra cobarde, ya a nadie defiendes,
               LA#           RE7
    pero no lo saben... pero no lo saben.
    
    
  • Tablatura
    Intro: SOLm FA MIb riff 1(x 4) alternando uno y otro
    Intro: SOLm FA MIb riff 2(x 4)
    
    Riff 1                 MIb
    --------------------------
    --------------------------
    --------------------------
    --------------------------
    ---------1----------------
    -3-3-1-3---3-1------------
    
    Riff 2
    --------------------------
    --------------------------
    --------------------------
    --------------1-0---------
    ---0-1-1-0--------3-1-----
    -3---------1----------3---
    
    Riff 3
    
  • Tablatura
    SOLm-LA# -FA -RE# 
    
    
    "h"-Hamer on
    "p"-pull of
    "v"-vibrato
    "b"-bending
    "s"-slide
    e-------------------------------------------5-----------------
    b---------6h8p6---8v------6h8p6---8v------5---8-7-------------
    g-----5h7-------7----5h7--------7-----5h7---------7-5-3-3v----
    d-------------------------------------------------------------
    a-------------------------------------------------------------
    E-------------------------------------------------------------
    
    e-------------------------------------------------------------
    b---15-18-15-----------15--------15---------------------------
    g------------17-17-15--17b-17-17-17b-17-15v--15-14------------
    d--------------------------------------------------17-15-13v--
    a-------------------------------------------------------------
    
  • +
    ¡Colabora con nosotros!
    Envíanos tu versión de esta canción

Letra de Medalla de cartón
Nunca se empieza una batalla tarde,
las penas siempre llegan enseguida.
Tú siempre pides para nunca darme,
yo sólo pido lo que tú me quitas.
Y el cielo que revienta de repente
como un infierno que llegó deprisa,
guerra cobarde, ya a nadie defiendes,
pero no lo saben... pero no lo saben.
RIFF DE SAXO SOBRE: SOLm FA RE# (x 2)
Esa bandera siempre huele a sanre.
Triste paisaje, todo de ceniza.
Distintas guerras, distintas ciudades
y el mismo fuego que quemó guernika.
Tú crees que estoy cantando en el desierto
yo sé que sólo muere lo que olvidas.
Corazones llenos de agujeros
pero no lo saben... pero no lo saben.
todo lo que no se ve, lo que nadie nos contó,
lo que se quedó en la piel la memoria del dolor.
que le den al general la medalla de cartón,
se la tiene que clavar en mitad del corazón.
-(haciendo SOLm LA# FA RE# suave)-
todo lo que no se ve. lo que nadie nos contó.
lo que se quedó en la piel. la memoria del dolor.
todo lo que no se ve. lo que nadie nos contó.
lo que se quedó en la piel.
-(vuelve a tocar con normalidad los mismos acordes)-
todo lo que no se ve. lo que nadie nos contó.
lo que se quedó en la piel. la memoria del dolor.
que le den al general la medalla de cartón,
se la tiene que clavar en mitad del corazón.
todo lo que no. todo lo que no.
todo lo que no. todo lo que no.
todo lo que no. todo lo que no.
todo lo que no. todo lo que no.
Cualquier duda, consulta o en lo que pueda ayudar, escriban al mail
alan_heroico@yahoo.com.ar

Videos de Medalla de cartón
[ver más videos]

[ver todas las canciones]


© LaCuerda.net · Aviso Legal · Privacidad