Acordes de Guitarra » F »Fernando Delgadillo » Visita Y Acuerdo (Tab)

Visita Y Acuerdo
Fernando Delgadillo

Letras, Acordes y Tabs para Guitarra, Bajo y Ukulele

  • Intro: D   A   (2)
    
    D
    Si por decir lo que piensas
                  A      
    Te giran sentencia
    
    Y te mandan callar,
    D
    Cambia al instante de oyente
                       A
    Que siempre habrá quien
    
    No te pueda escuchar.
             Bm              F#m
    Sin dejar de notar sus vacíos
              A               G
    Tu los haces mirar hacía sí.
    G
    Ver que ocultan sus vidas
    
  • E---2------/---0------/--5----------/--2----------
    B------3---/------3---/---------8---/---------5---
    G---2 -----/---0------/-----6-------/--2----------
    D---0------/---0------/--5----------/--2----------
    A----------/----------/-------7-----/-------4-----
    E--------  /----------/--5----------/--2----------
         D         D3          A             F 
    E--2------/---0-----/---------/-----4-----
    B------4--/------3--/------3--/--------5--
    G--2------/---2-----/--0------/-----4------
    D------4--/---------/----2----/--0--------
    A--2------/---------/--0------/-----------
    E--2------/--2------/---------/----------
       B#        D5         A*         D4
    (RIF)
    A----0----2---4-5
    
    (INTRO)
    D,D3-D-D3,A ,D,D3-D-D3,A 
    
    
  • +
    ¡Colabora con nosotros!
    Envíanos tu versión de esta canción

Letra de Visita Y Acuerdo
Si por decir lo que piensas
Te giran sentencia
Y te mandan callar,
Cambia al instante de oyente
Que siempre habrá quien
No te pueda escuchar.
Sin dejar de notar sus vacíos
Tu los haces mirar hacía sí.
Ver que ocultan sus vidas
En rutas conocidas
Y que aconsejan no salir,
Invita a dormir.
Somos iguales tú y yo,
Solamente que nunca lo vemos así.
Los años de diferencia funcionan
Para detenernos a oír
Un menor y un mayor.
Imagino porqué: de haber crecido a la par,
No tendríamos paciencia, ni buena conciencia,
Ni esa otra edad que perdonar para caminar.
Sabes, y a veces sé yo,
Que una mancha de estrella
Me aleja de aquí.
Tú siempre tras la bandada
Que a cada verano, te invita a partir.
Vuela, querido mío, vuela y verás,
Que mejor que volar es volver.
Te lo dice un amigo
Que sueña un camino mejor
Si caminas con él.
Vine a notar por aquí
Que haz dejado al marcharte
Un reguero de luz,
Que iluminó y se ha instalado
De modo confiado así como haces tú.
Luego vine a acordar que te quiero
Y que siempre que tengas algo que contar,
Me gustaría saberlo y
Sentado a tu lado, mandar
Todo el mundo a volar, volar y volar...
MARZO 24, 2000




[Visita Y Acuerdo chords][Visita Y Acuerdo cifra]
© LaCuerda.net · aviso legal · privacidad · es · en · pt · contacto