Acordes de Guitarra » F »Fernando Delgadillo » Ensayo de una boca (Tab)

Ensayo de una boca
Fernando Delgadillo

Letras, Acordes y Tabs para Guitarra, Bajo y Ukulele

  • D A Bm G D/F# Em G Bm A D x 2
    
    D               A                  G
    La boca de mi amada es jardin de ceresos
                      D
    es fuente de agua pura
                         A                   C         C#aug
    y el cuenco en donde abrego y acresento mis ansias
    
    
    D                 A                  Bm
    Sus labios son renuevos y sus dientes azucar
                      G     Em
    y es perfume su aliento
           A             D
    y es perfume su aliento
                   Em                      G
    remanso inagotable su voz mientras discurre
                        Bm        A               D     A  C  G  A
    me arrulla y me alimenta me acuna y me da consuelo
    
  • E                 B                 A
    La boca de mi amada es jardin de ceresos
                      E
    es fuente de agua pura
                           B                       D  B
    y el cuenco en donde abrego y acresento mis ansias
    
    
    E                 B                     C#m
    Sus labios son renuevos y sus dientes azucar
                      A
    y es perfume su aliento
     F#m      B         E
    y es perfume su aliento
                   F#m                      A
    remanso inagotable su voz mientras discurre
                        C#m        B               E
    me arrulla y me alimenta me acuna y me da consuelo
    
    
    
  •   D       A                     Bm        G
    1------2p0---------------------0-------------------------
    2------3-----0h2p0-------0h2/3---------3-------3-2p0---0-
    3----2-------2-----2---2-------------4-------0-------2---
    4--0-------------------------------4-----0---------------
    5----------0---------0-----------2-----------------------
    6------------------------------------------3-------------
    
    D/F#              Em              G             Bm            D
    -------------2-0-----2-3-2-0---------------------------0-----||
    -3---------3-----0---0-------0-0h3p0-------3-3---3-2/3---3---||
    ---2-----2---------0---------------------0-----4-------------||   (x2)
    -------0-------------------------------0-------------------0-||
    -------------------------------------2-------2---------------||
    -2---2---------0---------------3-----------------------------|| 
    
    
    D               A                     G      
    La boca de mi amada es jardín de cerezos
                      D                   
    
  • e---------2p0------------------------0--------------
    b----------------0h2p0---0-1--0h1h3-----------------
    g------2----------------2---------------------------
    d----0----------------------------------------------
    a--------------0------------------------------------
    E---------------------------------------------------
    
    
    e---------------------------------------------------
    b------2-0--------3----2/3--3---3-2p0---------------
    g-------------2-4---------------------2-0--2--------
    d---------------------------------------------------
    a----2-----------------0----------------------------
    E---------------------------3--------------3--------
    
    
    
    e--------------0--(0)-0-2-3p2-0---------------------
    b----------2-3------------------2-------------------
    g------2-4------------------------------------------
    
  •       D       A                        Bm   Bm/A       G
    e|------2p0------------------0---------------------------------------
    B|----3-3-----0h2p0-----0h2h3-------3----3--------3----3--2h3p2p0----
    G|----2-------2-----2--2-----------4----4--4-----0-0------------2p0--
    D|----0-------------------------------2------------0-----------------
    A|----------0--------0-----------2-------0---------------------------
    E|----------------------------------------------3--------------------
    
    D/F#               Em              G                 Bm    A         D
    ----------------0--0^---0-2-3-2-0----------------0----2------------0--2--|
    --3-----------3------0-----------3-0h3p0-------3---3---3--------2h3---3--|
    ----2-------2---------0----------------------0----------4-------2-----2--|
    --------0-4--------2^----------------------0------------------2-------0--|
    -------------------2^---------------------------------2-----0------------|
    --2----2-----------0^--------------3-------------------------------------|
    
    Intro (2 veces)
    
    D            Asus
    La boca de mi amada
    
  • Dedicada a CVZ quien bueno, indirectamente me hace aprenderme estas rolas
    aunque esta en particular no le guste
    
    intro
    
    e|-----2h0-----------------------0-----------------------------------
    B|---------3---0h2h0-------0h2h3-------3-----3-----------3---2h0-----
    G|---2-------2-------2---2-----------4-----4-----4-0---0---------2-0-
    D|-0-------------------2-----------------4-----------0-----0---------
    A|-------------0-------------------2-----------0---------------------
    E|-------------------------------------------------3-----------------
    
    ----------------0---0-2-3-2h0-----
    ------------3---0-0-----------0---
    2---------2---2-0---------------0-
    --0---0-4-------------------------
    ----0-----------------------------
    2---------------0-----------------
    
    
    e|-------------0---2-----------0--------
    B|-0h3-------0---0---3-----2h3---3-3----
    G|-----0---0-----------4---2------------
    D|-------0-------------------------0----
    A|-----------------2-----0--------------
    E|-3------------------------------------
    
    
  • +
    ¡Colabora con nosotros!
    Envíanos tu versión de esta canción

Letra de Ensayo de una boca
La boca de mi amada es jardin de ceresos
es fuente de agua pura
y el cuenco en donde abrego y acresento mis ansias
Sus labios son renuevos y sus dientes azucar
y es perfume su aliento
y es perfume su aliento
remanso inagotable su voz mientras discurre
me arrulla y me alimenta me acuna y me da consuelo
Su risa es transparente como el juego del viento
me colma cuando rie y cuando se va sonriendo
cuado sonrie por nada
y cuando por nada vuelvo a invitarle que sonria
su risa cristalina es mi dicha y es mi premio Ohohoooo
Y si su boca acusa un suspiro de su pecho
me envuelve y me aprisiona
me alaga y mas me apresto a reconfortar sus manos
sus labios y su cueyo su vientre de paloma
y su delicado vuelo
y amodo de su boca
es mi boca deseo
su boca es la ventana su boca es su secreto
es la cansion del agua y es lenguaje del alma
y es el amor y el tiempo su boca bien amada
La boca de mi amada es jardin de cerezos
es huerto de naranjos limones y almendros
es sombra y es frescura en el molde mas perfecto
y mi mas caro tesoro
por que hoy me lo da todo si me regala un beso Ohohoooo
Final:
Acordes:
Algunos acordes no supe como se llaman, yo les puse nombre pero
si alguien sabe los nombres le agradeceria que me los pase
prueben con esta y me dicen que tal suena...




[Ensayo de una boca chords][Ensayo de una boca cifra]
© LaCuerda.net · aviso legal · privacidad · es · en · pt · contacto