Acordes de Guitarra » F »Fernando Delgadillo » El swing de la vinateria (Tab)

El swing de la vinateria
Fernando Delgadillo

Letras, Acordes y Tabs para Guitarra, Bajo y Ukulele

  • Esta es una de las primeras transcripciones que saco de
    fernando delgadillo espero que les guste y hay califikenle
    
    Intro:
    
    1|-------------|------------|-------------------|-------------------|
    2|-------------|------------|-------------------|-------------------|
    3|-------------|------------|-------------------|-------------------|
    4|-------------|------------|-------------------|-------------------|
    5|-3---1-------|-1--1h2--3--|-1------1--1h2--3--|-1------1--1h2--3--|
    6|----------3--|------------|-----3-------------|-----3-------------|
    
     (Aqui empieza la primera parte)
    
      Disculpe maestro perdoneme la intarrupcion
    1|----------------------------------------------|---------------|
    2|----------------------------------------------|---------------|
    3|----------------------------------------------|---------------|
    4|----------------------------------------------|---------------|
    5|---3-------1----------------1---1-h-2----3----|-1----------1--|
    6|-------------------3------------------------
  • +
    ¡Colabora con nosotros!
    Envíanos tu versión de esta canción






[El swing de la vinateria chords][El swing de la vinateria cifra]
© LaCuerda.net · aviso legal · privacidad · es · en · pt · contacto
DINAMICO