Acordes de Guitarra » F »Fernando Delgadillo » Campo de sueños (Tab)

Campo de sueños
Fernando Delgadillo

Letras, Notas, Punteos, Tablaturas y Acordes de Guitarra (Tabs & Chords)

  • Letra y Acordes
    Intro: Bb F C F G(x2)
    
    C
    
    C                        Bb
    Uno se cura todo cuando duerme,
      C                              F G
    cuando uno duerme y sueña ese lugar.
    Bb                          F
    Ese lugar de campo siempre verde
                          C
    y las colinas bajas, sólidas
                        F  G
    de un cielo horizontal.
    Bb                         F
    Uno se cura todo cuando habita
                       C
    una casita con ventanas
                             G  F
    donde siempre hay que mirar.
    
  • Tablatura
       C                Bb               F                G
    e---------------  ---------------  ---------------  ---------------
    B------1-----1--  ------3-----3--  ------1-----1--  ------3-----3--
    G----0-----0----  ----3-----3----  ----2-----2----  ----4-----4----
    D--------2------  --------3------  --------3------  --------3------
    A--3------------  --1------------  --3------------  --3------------
    G---------------  ---------------  ---------------  ---------------
    
    
    aqui les anoto las variaciones que hay en las notas
    
       C*
    e--3---1---1----------------------
    B----0---1---0-3---1---0-----1-1--
    G----------------0---0---0---0-0--
    D---------------------------------
    A--3-----------3-----------3---3--
    G---------------------------------
    
       C**
    
  • +
    ¡Colabora con nosotros!
    Envíanos tu versión de esta canción

Letra de Campo de sueños
Uno se cura todo cuando duerme,
cuando uno duerme y sueña ese lugar.
Ese lugar de campo siempre verde
y las colinas bajas, sólidas
de un cielo horizontal.
Uno se cura todo cuando habita
una casita con ventanas
donde siempre hay que mirar.
Hoy desperté soñando con el sitio
donde imaginé de niño
que de grande iba a habitar.
El suelo ahí en mi casa es de cuadritos.
Cuadros negros y blancos de ajedrez.
Con tres ventanas, vivo en un cuartito,
desde donde veo como es
todo al derecho y al revés.
Voy adelante con mi mecedora,
o hacia atrás, según me empuje
o me recline con los pies.
Desde mi puesto tengo buena vista.
Un campo de sueños tengo por jardín.
Un camino de piedras redonditas,
que empezó en mi puerta y parte
serpenteando a algún confín siempre mejor.
Todo sucede y va pasando a diario.
Las mañanas son eternas,
sopla el viento y brilla el sol.
Hay cuentos de conejos, comadrejas, lobos
y zorritos buenos que vendrán para almorzar.
Conforme a mi entender todo es correcto,
el tramposo se cae al pozo, ya el honrado lo vencerá.
Yo soy un gnomo sabio cuando duermo,
y al despertarme me he encontrado al fin
tan lejos de los campos de mis sueños.
Me hice un grandulón risueño,
y me pregunto: ¿qué hago aquí?
No me hagáis caso, sólo estoy pensando
si el colorín colorado no me va a dejar dormir.
Apareció y me levantó temprano
para contaros hermanos,. . . los cuentos que le aprendí.



© LaCuerda.net · Aviso Legal · Privacidad
DINAMICO