Acordes de Guitarra » F »Fernando Delgadillo » Ay, amor (Tab)

Ay, amor
Fernando Delgadillo

Letras, Acordes y Tabs para Guitarra, Bajo y Ukulele

  • G 
    Difícil cosa
            D/F#           Em 
    que es hacerte una canción                    
            C*        D
    donde poderme agoviar
                  G
    con frases cortas
    G7                C
    y una que otra prueba
                      D       G
    es tanto lo que juzgo certidumbre
    D/F#        Em     C*
    pero no lo ves, y es tanto 
              D        G    G7
    lo que tienes al revés
      C                    D       
    y es tanto luego el desencanto 
    G        D/F#             Em
    en la cuestión y sigue siendo
    
  •     G        C         G     C      G                       
    e|-------------------------------------------------|
    B|-------0---1---0---0-----0h1p0--0---0------------|
    G|---0-----0---0---0-----0----------0--------------|
    D|-------------------------------------------------|
    A|-------------------------------------------------|
    E|--3------------------3---------------------------|
    
        G          D/F#       Em
    e|---------------------------3p0-----0----0---0----|
    B|--3-----3----3-----3----3------0----------0------|
    G|------0----------0------0--------0---------------|
    D|----0----------0---------------------------------|
    A|-------------------------------------------------|
    E|--3-----3----2-----2----0------------------------|
    
        C          Bm         Am        D
    e|--3-----3----3-----3----3-----3---3-----2--------|
    B|------1----------1----------1-----3-----3--------|
    G|----0----------0----------0----------2-----------|
    
  • e|-----------------------------------------------0-2---|
    B|------0-1---0-------0^1-0---0--3---3-------3---------|
    G|----0-----0---0---0-------0------0---0----2--2-------|
    D|--------------------0^2-0----------------0-----------|
    A|-----------------------------------------------------|
    E|--3-------------3--------------3--------2------------|
    
                       C
    e|--3h0---------0------3---3-----3---3-3---------------|
    B|------0---0----0-1-----------0--0------1-1---1-------|
    G|--------0---0-------0--0---0---------------2---2-----|
    D|-----------------------------------------0-------0---|
    A|-----------------3-------2--------0------------------|
    E|-0---------------------------------------------------|
    
        G                          Em               C
    e|-----3-------3-----------3----------------0----------|
    B|---------3-----3-----1--------0----3--0----0--1------|
    G|---0---0---0-----0---0-0---0---0h2--2---0---0-0-0h2p0|
    D|-----------------------------------------------------|
    
  •     C                            G       D/F#
    e|-------------------------------------------------2---|
    B|------0-1---0-------0^1-0---0--3---3-------3---3-----|
    G|----0-----0---0---0-------0------0---0----2--2-------|
    D|-----------------------------------------0-----------|
    A|-----------------------------------------------------|
    E|--3-------------3--------------3--------2------------|
    
                       C
    e|--3h0----------------3---3-----3---3-3---------------|
    B|------0---0---0--1-----------3---------1-1---1-0-----|
    G|--------0---0-------0--0---2---------------0-----2---|
    D|-----------------------------------------0-----------|
    A|-----------------3-------2--------0------------------|
    E|-0---------------------------------------------------|
    
        G                          Em          C
    e|-----3-------3-----------3-----------0--------0------|
    B|---------3-----3--------------0----0---0--1-----1----|
    G|---0---0---0-----0-----0---0--0--0----------0-----0--|
    
  • +
    ¡Colabora con nosotros!
    Envíanos tu versión de esta canción

Letra de Ay, amor
Difícil cosa
que es hacerte una canción
donde poderme agoviar
con frases cortas
y una que otra prueba
es tanto lo que juzgo certidumbre
pero no lo ves, y es tanto
lo que tienes al revés
y es tanto luego el desencanto
en la cuestión y sigue siendo
tan pequeña mi canción
Mira mis manos
cuando menos de estas
llevo siempre encima un par

se embolsan
y se tienden a alcanzar, y
alguna de ellas
tan fiel y tuya como yo
se esfuerza tanto en ofrecerte
mas caricia y no definición de amor
si acaso una violeta y tiempo
para descansar la tuya
cuando deja de jugar
Ay amor amor
no solo tengo manos
tengo un corazón dispuesto
y justo en medio de él
tengo una cálida sonrisa de ansiedad
tengo tu nombre a flor de labios
y otra cosa, tengo tanto que mirar
bajo tu escote y tengo un poco
y tengo mas de que pensar
cuando supones que eres agua
que anda y corre y se avecina y se remonte
serpenteando y yo con esta sed que tengo
con esta sed de ti mujer
Sigo pensando que es difícil de lograr
decir te quiero, sin que suene a hoja en blanco
a palabra ocasional
digo un te quiero de soldado
de guitarra y pelo largo
porque creo en ellos
porque tengo un credo
y tengo la verdad enfrente
si te veo como patria y el deber
de caminar amándote de ser yo mismo
para ti y para teñir una y mil veces en mi frente
tu reflejo tricolor,
ay amor...




[Ay, amor chords][Ay, amor cifra]
© LaCuerda.net · aviso legal · privacidad · es · en · pt · contacto