Acordes de Guitarra » F »Fernando Delgadillo » A La Piramide Del Sol (Tab)

A La Piramide Del Sol
Fernando Delgadillo

Letras, Acordes y Tabs para Guitarra, Bajo y Ukulele

  • A LA Piramide del SOL
    Fernando Delgadillo
    
    De fondo sonidos prehispánicos
    G, Em7, G, Em7, A7sus4, G, Em7, A7sus4..
    
    D,A°,G (x3)
    
    3|---------------------------------------4/6-------------------|
    2|--------------------------------7-5--------5-7-5-7/9---------|
    1|-/12--11--9--7----5-4-5---4^5^4----------------------7-7/9-7-|
    
    3|---------------------------------------------------|
    2|------------------------------------9-9-9-7-5------|
    1|--14-12-11-11/9-9-9/7-7---5-5-5/7-7-------------7--| A7sus4
    
    D
    Con la estela inagotable,
                                   G    G
    de aquel que siempre ha sido camino
    
  •      E
         Con la estela inagotable 
               B                        A     
         de aquel que siempre ha sido camino, 
               E        
         tu templanza  quien supiera 
             B                         A            B
         buscarla en la lontananza vibrante de humedad 
                 C#m          G#m   
         si bien ha pasado el hombre 
                   A                E               A
         se ha quedado el tiempo en el recuerdo 
                               B             C#m     G#m      
         que va enredando los hechos con tu faz 
                 A           B    
         no me fueras más remota 
         (en A) IV2   IV1   C#m     B      A   B
         si antecedes las memorias de tu edad, 
                 E    B   A   E   B   A
         de tu edad. 
    
  • D,A,G,A,D
    
    D
    con la espera inagotable,
          A                         G    A
    de aquel que siempre ha sido camino
           D                       A     
    tu temblanza quien supiera buscarla
                        G            A
    y la eutanancia vibrante de humedad.
     
    Bm                     F#m
    Si bien ha pasado el hombre,
              G             A          
    se ha quedado el tiempo en el recuerdo.
    D                     A             Bm F#m
    Que va enredando los hechos con tu faz.
    
            G           A
    No me fueras mas remota,
    
  • G A Em G A G A G A D/A*
    
    Intro: D A G (x4)
    
    3|---------------------------------------4/6------------------|
    2|--------------------------------7-5--------5-7-5-7/9--------|
    1|-/12--11--9--7----5-4-5---4^5^4----------------------7--9-7-|
    
    3|---------------------------------------------------9-|
    2|------------------------10-10-10/12-12--9-7-5-5/12---|
    1|--14-12-11-11/9-9-7-7--------------------------------|
    
    D                            A                          G
    Con la estela inagotable de aquel que siempre ha sido camino
          D                       A                      G             A
    tu templanza quien supiera buscarla en la utananza vibrante de humedad
            B#m          F#m             G                     D       G
    si bien ha pasado el hombre se ha quedado el tiempo en el recuerdo
                          A             B#m   F#m
    que va enredando los hechos con tu faz
    
  • B=bend
     
    Gtr 1=Fernando Delgadillo
    Gtr 2=Gonzalo Ceja
     
    Gtr 1
    1|---0s2-0-(0)---|----2-----|--------|-----|---------------(2)-2-------2-------2--|
    2|---3---3-(3)---|------3---|------3-|-----|----3------3---(3)-----------3---3-3--|
    3|---------(2)---|----------|----2---|---0-|--0------0-----(0)--------------0-----|
    4|-0-------------|----------|--0-----|-2---|------0-----------------------0-------|
    5|---------------|--0-------|--------|-----|--------------------------------------|
    6|---------------|----------|--------|-----|-3---------------------3--------------|
     
    Gtr 2
    1|-12-11-9-7-5-4-5-5/3-2-0----------2---2-4-5-4-12-11-9-9/7-5-5-4-4-3/5-5-2-2-0----3/5--------|
    2|-------------------------------0----0-----------------------------------------3-------5/1---|
    3|--------------------------2/4---------------------------------------------------------------|
     
     
    1|---0s2-0-(0)---|----2-----|--------|-----|---------------(2)-2-------2-------2--|
    
  • +
    ¡Colabora con nosotros!
    Envíanos tu versión de esta canción

Letra de A La Piramide Del Sol
Fernando Delgadillo
De fondo sonidos prehispánicos
D,A°,G (x3)
Con la estela inagotable,
de aquel que siempre ha sido camino
tu templanza quien supiera buscarla
En la lontanza vibrante de humedad.
Si bien ha pasado el hombre,
se ha quedado el tiempo en el recuerdo.
Que va enredando los hechos con tu faz.
No me fueras más remota,
si antecedes las memorias de tu edad, de tu edad.
Con la fresca sobriedad de antaño
Y reflexión del alma,
tu pesado pesar de rocas se ha jurado
nostalgia años atrás.
Con tanto ayer en tus tapias ancestrales
y polvosas, que
de noche cuentan murmullos, a la paz.
Cuando el campo está en silencio
Tu lamento lleva el viento a donde va,
donde va. 
VERSO:
Di coloso, viejo y triste
los secretos del silencio,
cuando el viento lleva eterno
los suspiros del perpetuo
condenado a soledades.
Cuando busca entre tus quicios,
Hoy vacíos y destierros
y olvidados por condena
de lo reluciente y nuevo,
yo te invoco y tu pasado
a ser la flor de mi verso,
por la noche y la tiniebla,
por la estrella y el sendero. (A la Piramide del sol)
Fue cuando el tiempo bajara cantando y
rasgando las lunas al sol de epopeyas.
Y arrojó leyendas como si sembrara,
Maíz en semillas y etapas en eras.
Ligando proezas al cinto celeste
de muerte a la vida de alivio a las pestes.
tu viste al hombre, tu viste a la muerte
Miraste al tiempo, de cinto celeste.
Miraste,
miraste,
miraste,
miraste, miraste, miraste, miraste (x2)
Juego de Bajos
Final
LORDJESR




[A La Piramide Del Sol chords][A La Piramide Del Sol cifra]
© LaCuerda.net · aviso legal · privacidad · es · en · pt · contacto