Acordes de Guitarra » F »los Fabulosos Cadillacs » Todas las cosas que ella me dió (Tab)

Todas las cosas que ella me dió
los Fabulosos Cadillacs

Letras, Acordes y Tabs para Guitarra, Bajo y Ukulele

  •    C              A           C                 A            A5
    E--3--------------------------3---3---1--------------------|-----3---|--
    A-----0-3--2--0-2-3--0-3-2-0----0---0-------0-3-2--0-3-2-0-|-3-2---2-|--
    D----------------------------------------------------------|---------|-x2
    G----------------------------------------------------------|---------|--
    B----------------------------------------------------------|---------|--
    E----------------------------------------------------------|---------|--
       C              A           C                  A        A
    E-----------------------------3---3---1---3----------------
    A-----0-3--2--0-2-3--0-3-2-0----0---0-------0-3-2--0-2-3---
    D----------------------------------------------------------
    G----------------------------------------------------------
    B----------------------------------------------------------
    E----------------------------------------------------------
    
    C               Am
    Verano extraño, el de 1986,
    C                   Am
    yo estaba buscando, una forma de escapar
    C                        Am
    
  • +
    ¡Colabora con nosotros!
    Envíanos tu versión de esta canción

Letra de Todas las cosas que ella me dió
Verano extraño, el de 1986,
yo estaba buscando, una forma de escapar
de escapar de las manos, de alguien que me estaba ahogando
y el único camino que veía era saltar desde el balcón
cada vez que pensás que no, alguien llega para salvarte.
Donde poder enterrar, como poder olvidar |
todas las cosas que ella me dio |
donde poder enterrar, como poder olvidar |
todas las cosas que ella me dio. |
Llegó despacio, ojos brillantes como el sol
me dijo que conocía todas las cosas que llenan mi vida
yo contesté algo casi sin pensar
vi esa película muchas veces y nunca me gustó el final
cada vez que pensas que no, alguien llega para salvarte.
Donde poder enterrar, como poder olvidar
todas las cosas que ella me dio
donde poder enterrar, como poder olvidar
todas las cosas que ella me dio.
INTERMEDIO:C y Am (Verano extraño, el de 1986)
Después: A - B y de nuevo:
Donde poder enterrar, como poder olvidar |
todas las cosas que ella me dio |
donde poder enterrar, como poder olvidar |
todas las cosas que ella me dio. |




[Todas las cosas que ella me dió chords][Todas las cosas que ella me dió cifra]
© LaCuerda.net · aviso legal · privacidad · es · en · pt · contacto
DINAMICO