Acordes de Guitarra » F »los Fabulosos Cadillacs » Calaveras y Diablitos (Tab)

Calaveras y Diablitos
los Fabulosos Cadillacs

Letras, Acordes y Tabs para Guitarra, Bajo y Ukulele

  • A                 A/F#
    Yo a vos no te creo nada
    
         Bm              E
    Como vos vas a creer en mi...?
    
    A                   A/F#
    
    Universo de tierra y agua
    
           Bm         E
    me alejan de vos
    
    A                       A/F#
    
    Las tumbas son para los muertos
    
        Bm              E
    Las flores para sentirse bien
    
    
  • e|--0--|-----|------------------------------------
     |-----|-----|------------------------------------
     |--0--|-----|------------------------------------
     |-----|-----|------------------------------------
     |-----|--0--|------------------------------------
    E|-----|-----|------------------------------------
    /
    
    * todas las cuerdas se tocan.
    
    
    
    intro: (2x)
    ----------------------------------------------
    ----------------------------------------------
    ----------------------------------------------
    ------7---4-7---6--------7--------------------
    --4-7----5----7-------4-7---8-10-8------------
    ----------------------------------------------
    
    
  • |---------------------|------------------|
    |---------------------|------------------|
    |o--------------------|-----------------o|
    |o-------7---4-7---6--|------7----------o|
    |---4-7----5-----7----|--4-7---8-10-8-7--|
    |---------------------|------------------|
    
       A              Bm          E
    |-----------------------------------|
    |---5-5-5-5---7--5--7--(7)/--9--7---|
    |o--6-6-6-6---7--6--7--(7)/--9--7--o|
    |o---------------------------------o|
    |-----------------------------------|
    |-----------------------------------|
    
      A               Bm      E     
    |----------------------------|-------------------7--|
    |--5-5-5-5---7--5--7--9--10--|--7--(7)/10--7---9----|
    |--6-6-6-6---7--6--7--9---9--|---------------7------|
    |----------------------------|----------------------|
    
  • +
    ¡Colabora con nosotros!
    Envíanos tu versión de esta canción

Letra de Calaveras y Diablitos
/
* todas las cuerdas se tocan.
(2x) ~~~~~~~~
(1x) ~~~~~
verso:
Yo a vos no le creo nada
Como vos vas a creer en mi...?
Universo de tierra y agua
me alegan de vos
Las tumbas son para los muertos
Las flores para sentirse bien
La vida es para gozarla
La vida es para vivirla mejor
Calaveras y diablitos.... (2x)
Calaveras y diablitos....Invaden my corazon
intelude:
No quiero morir sin antes haber amado,
pero tampoco quiero morir de amor
Calaveras y daiblitos
Invaden mi corazon
verso:(1x)
terninacion (2X):
uuh uuuuh uuh
Bueno, esa es toda la cancion. El ritmo de esta caion deveria ser ska en
el tiempo de 4/4. En otras palabras, casi se toca como una rancherita. Si
tienen algun comentario o corecion, mandemen un mail. Tratare de ayudarles
lo mas que pueda :D




[Calaveras y Diablitos chords][Calaveras y Diablitos cifra]
© LaCuerda.net · aviso legal · privacidad · es · en · pt · contacto