Acordes de Guitarra » F »los Fabulosos Cadillacs » Basta de llamarme así (Tab)

Basta de llamarme así
los Fabulosos Cadillacs

Letras, Acordes y Tabs para Guitarra, Bajo y Ukulele

  • G      D
    Basta, basta de llamarme así
    Em
    Ya voy a ir
    C
    Voy a subir
              G          D-G
    Cuando me toque a mi
    
    
    G            D
    Mientras te canto esta canción
    Em
    En tu voz
    C
    En tu honor
            G
    O en la voz
                         D         G
    De los que estén durmiendo allí
    
  • G        D
    Basta, basta de llamarme así,
    Em             C
    ya voy a ir, voy a subir,
                       G               D
    cuando me toque a mí.
    
    G                D 
    Mientras te canto esta canción,
    Em                 C 
    en tu voz, en tu honor, o en la voz
                                     G               D
    de los que estén durmiendo allí.
    
    
        G              D
    Y juro que la cara voy a dar
    Em            C 
    cada vez, cada vez
                                          G             D
    
  • Esta es una nueva versión de la canción que ya antes habian hecho
     Los Fabulosos Cadillacs.
    Esta versión está un tono arriba que la anterior.
    El bajeo no está dificil, los tonos aparecen en este orden tanto
    en la musica como en la letra.
                    A
    G|----------------------------|
    D|----------------------------|
    A|-------77777---------77777--|
    E|-5-5--5--------5-5--5-------|
                 E
    G|----------------------|
    D|-------99999----------|
    A|-7-7--7-------7---7-8-|
    E|----------------------|
                     F#m
    G|-------9----9-----------9----9----|
    D|---------11---11----------11---11-|
    A|-9-9---------------9-9------------|
    E|----------------------------------|
                            D
    G|---------11----11-------------11------11----|
    D|------------12----12--------------12-----12-|
    A|--------------------------------------------|
    E|-10-10-----------------10-10----------------|
              A                E
    G|-------6---7---8-|--9---7---6------|
    D|---7-------------|-------------
  • en memoria de mi amiga derly 
    
    BASTA DE LLAMARME ASI
    
    5-5
    5-(4) (4) (4) – (4) 5 – (4)
    (4)- 4 4 4 –(4) – 4 4 4 
    (5) (5) (5) –5 4 3
    
    5–5 
    5 5 5 (4)- (4) (4) 5 (4)
    (4) 4 4 – (4) 4 4
    (5) (5) (5) (5) (5) 5 4 3
    
    (5) 5 5
    5 5 5 (4)- (4) 5 (4)
    (4) 4 4 – (4)  4 4 – (6) (6) (6) (6) (6) (6) (6) 6  5  4  3
  • +
    ¡Colabora con nosotros!
    Envíanos tu versión de esta canción
  • Tutorial
    HD
    Como Tocar Basta De Llamarme Así - Los Fabulosos Cadillacs [Tutorial Guitarra]
    3:21

Letra de Basta de llamarme así
Basta, basta de llamarme así
Ya voy a ir
Voy a subir
Cuando me toque a mi
Mientras te canto esta canción
En tu voz
En tu honor
O en la voz
De los que estén durmiendo allí
Y juro
Que la cara voy a dar
Cada vez
Cada vez
Que alguien te nombre
Aquí o allá.
(Repite todo)




[Basta de llamarme así chords][Basta de llamarme así cifra]
© LaCuerda.net · aviso legal · privacidad · es · en · pt · contacto