Acordes de Guitarra » F »los Fabulosos Cadillacs » El León (Tab)

El León
los Fabulosos Cadillacs

Letras, Acordes y Tabs para Guitarra, Bajo y Ukulele

  • Gm                 
    El leon esta escondido en el callejon 
              Cm
    y sabe bien lo que le va a pasar
        D
    entonces saca su revolver 
                 Gm  
    y va a disparar
     
             Gm                  
    la policia lo rodea sin tregua 
         Cm
    lo buscan por ajuste de cuentas
                 D
    y es el sargento que sin vacilar
                      Gm
    abre fuego y le da
    
    Gm                     
    Lo curioso es que antes de morir 
    
  • SOL SOL - SOL LA# LA# - LA# DO DO - DO RE#...
    
    (en esta parte empiezan los acordes junto con el resto de la cancion)
    
    SOL LA LA# SOL RE - SOL LA LA# SOL DO
    
    SOL LA LA# SOL LA# - DO LA# LA LA# SOL...
    
    Gm
    El León está escondido en el callejón
           Cm
    y sabe bien lo que le va a pasar.
      D7                                  Gm
    Entonces saca su revólver y va a disparar.
    
    Gm
    La policía lo rodea sin tregua,
           Cm
    lo buscan por ajuste de cuentas
     D7                                    Gm
    
  • e---------------------------------------------
    b---------------------------------------------
    g-----7-7-5-7-5-------------------------------
    D-5-8-----------8-7-8-7-5---------------------
    A---------------------------------------------
    E---------------------------------------------
    
    G5  A#5  C5  D#5
    
    e---------------------------------------------
    b---------------------------------------------
    g-8/11-11-11-9-8----8-8----8------------------
    D-----------------------11---11-9-8-9--11-----
    A---------------------------------------------
    E---------------------------------------------
    
    
    e---------------------------------------------
    b---------------------------------------------
    g-8-8----8------------------------------------
    
  • HOLA Q TAL GENTE ESTA ES LA VERSIÓN PARA BAJO ELECTRICO
    DE EL LEÓN SANTILLAN ESPERO LA ENTIENDAN
    GRACIAS GENTE SALUDOS DESDE PASTO COLOMBIA
    
    INTRODUCCIÓN:
    1:-----------------------
    2:-----------------------
    3:-------------3-3-3--6--
    4:-3-3-3---6-6-6---------
    
    ESTROFAS Y COROS:
    
    1:--------------------7-------------------
    2:----------------------7--7--5-3-3-4-5---
    3:-----------1-3--1-3-----5----5--------5-
    4:--1-3--1-3------------------------------
    
    PRECOROS BIS (4 VECES) (LO DIJO EL LEON....):
    
    1:---------------------------------
    2:-3-3-3-3-------------------------
    3:-----------------1-0-------1-0---
    4:--------1-1-1-1-3---3-0-1-3---3-1
    
    LUEGO REPITEN LA INTRODUCION LAS ESTROFA Y
    LOS COROS LUEGO EL ARRGELO DEL BASS
    
    1:---------------------------------
    2:-3-3-3-3-------------------------
    3:-----------------1-0-------1-0---
    4:--------1-1-1-1-3---3-0-1-3---3-1
    
    LO ANTERIOR DOS VECES Y A LA TERCERA:
    1:-----------------------------
    2:-3-3-3-3--------5-3-3-5-5-3-5
    3:-------------------5----
  • +
    ¡Colabora con nosotros!
    Envíanos tu versión de esta canción

Letra de El León
El leon esta escondido en el callejon
y sabe bien lo que le va a pasar
entonces saca su revolver
y va a disparar

la policia lo rodea sin tregua
lo buscan por ajuste de cuentas
y es el sargento que sin vacilar
abre fuego y le da
Lo curioso es que antes de morir
el leon santillan pronuncio palabras
ante los oficiales
que desconcertados miraban
y les dijo:
Queridos enemigos de siempre
dejo este mundo de dolor
nunca se olviden
que el llanto de la gente va hacia el mar
van al mar, van al mar
llanto, dolor, sufrimiento de un pueblo
se ahoga y se hunde en el mar
lo dijo el leon
lo dijo el leon (manuel santillan el leon)
lo dijo el leon
lo dijo el leon
Los oficiales que vieron morir a santillan
abandonaron la institucion
nunca mas se supo de ellos
del caso no se hablo mas

sin embargo por el viejo san telmo
en un sucio bodegon dicen que un borracho
murmuro llorando las palabras que eran del leon
y cuales eran manuel?

van al mar (el leon manuel), van al mar
llanto, dolor, sufrimiento de un pueblo
se ahogan en el mar

lo dijo el leon
lo dijo el leon (manuel santillan el leon)
lo dijo el leon
lo dijo el leon
bis-(fade)




[El León chords][El León cifra]
© LaCuerda.net · aviso legal · privacidad · es · en · pt · contacto