Acordes de Guitarra » F »los Fabulosos Cadillacs » el Satánico Dr. Cadillac (Tab)

el Satánico Dr. Cadillac
los Fabulosos Cadillacs

Letras, Acordes y Tabs para Guitarra, Bajo y Ukulele

  • A)               DOm
            Voy a tomar por vos, otro trago para olvidar
                         SOL
            que el miedo te comio los pies
                          RE
            y que ahora sos un tipo mas
            RE
                        SOLm
            y que poco a poco te fuiste yendo
            y que poco a poco te fuiste yendo de nuestro lugar
    
                      DOm
            Te sienta bien el sol, te sienta bien ser cool
                      SOLm
            te sienta bien el mar, te sienta bien ser Dios
                      RE
            te sienta bien mentir, y decir, 
                      SOLm
            que te fuiste yendo de nuestro lugar
            
    
  • Intro     Gm          Cm  Gm  D7  Gm
    
             Cm
    Voy a tomar vos, otro trago para olvidar,
                              Gm
    que gemido te comió los pies,
    
    y que ahora es un tipo más,
                    D7
    y que poco a poco te fuiste yendo,
                                                 Gm
    y que poco a poco te fuiste yendo de nuestro lugar.
    
    Te sienta bien el sol, te sienta bien ser Hulk,
    te sienta bien el mar,
    te sienta bien ser dios,
    te sienta bien mentir, y decir,
    que te fuiste yendo de nuestro lugar.
    
    CORO
    
  •                Cm 
    E------------|--------------------------|--------------------------|
    B-3--4--3--4-|---3--4--3-----3--4--3--4-|---3--4--3-----3--4--4--3-|
    G------------|-5----------5-------------|-5----------5-------------|
    D------------|--------------------------|--------------------------|
    A------------|--------------------------|--------------------------|
    E------------|--------------------------|--------------------------|
    
    Gm
    -------------------------|-------------------------|
    ---1--3--1----1--3--1--3-|---1--3--1----1--3--3--1-|
    -3----------3------------|-3----------3------------|
    -------------------------|-------------------------|
    -------------------------|-------------------------|
    -------------------------|-------------------------|
    
    D                     Gm
    ---------------------|-------2-2-2-2-2-3-2-3--|
    -------1-----1-----1-|-1--3-------------------|
    -2--3-----3-----3----|------------------------|
    
  • hola como estan bueno aki les dejo una de mas canciones que mas me
    gusta de los fabulosos asi ke ahi les va..
    INTRO:
    G|---------------------------|
    D|---/12-11-10-9-8-7-6-5-4-3-|
    A|---------------------------|
    E|-3-------------------------|
    SLAP:1
    G|----------x---x------------x---3----------x---x-x----------3-55-|
    D|------3h5--------------3h5------------3h5--------------3h5------|
    A|------------3---1------------3--------------3-------------------|
    E|-3-xx-------------3-xx-----------3-xx-------------3-xx----------|
    
    G|--------------x---x------------3-55--------------x---x-----------------|
    D|-3h5------3h5--------------3h5------3h5------3h5-------------3h5-------|
    A|----------------3---1------------------------------3---1---------3h5---|
    E|-----3-xx-------------3-xx--------------3-xx-------------3-x---------3-|
    
    VERSO:(x3)
    G|------------------------------------------------------------------------|
    D|------------------------------------3-4-5-----3-4-5---------------------|
    A|-33-55-66-6h8
  • EL SATANICO DR. CADILLAC POR MI RICHI!!!
    pal gus que nada mas esta chingue y chinue,
    si les late escribanme a mi mail, hellgate_777@hotmail.com
    
    ************************************************
    
    
    intro
    
    1-------------------------------------------------------------------------|
    2-------------------------------------------------------------------------|
    3-------------------------------------------------------------------------|
    4--3-3-3-3-3-3-3-3-3-3-3-3-3-3-3-3-3-/15-15-15-15-14-14-14-13-13-13-12-12-|
    
    1------------------------------------3--------------------------|
    2---X-X----X-------3---X-X----5-----------X-5----5-------3------|
    3------------3H5P3--------------3H5P3---------------3H5P3--3h5--|
    4-3-----3-3----------3-3---3-3----------3X----3-3---------------|
    
    1----------3h5-5-5------|
    2----x-x------------3h5-|
    3-------3h5-------------|
    4-3-3-------------------|
    
    1-----------------------------------------3h5-5-5-------------------------|
    2---5-5---------5--------3--------x-5---------
  • +
    ¡Colabora con nosotros!
    Envíanos tu versión de esta canción

Letra de el Satánico Dr. Cadillac
Voy a tomar por vos, otro trago para olvidar
que el miedo te comio los pies
y que ahora sos un tipo mas
y que poco a poco te fuiste yendo
y que poco a poco te fuiste yendo de nuestro lugar
Te sienta bien el sol, te sienta bien ser cool
te sienta bien el mar, te sienta bien ser Dios
te sienta bien mentir, y decir,
que te fuiste yendo de nuestro lugar

Que es lo que ha pasado con tu corazon
ya no marca el paso que marcaba ayer
nunca fuiste libre y esa es la razon
siempre hay un idiota para convencer
hablas toda la noche como un boy scout
hablas sobre mi vida como tu papa
Los Cadillacs tocando para vos
los Cadillacs tocando para vos
los Cadillacs tocando para vos
los Cadillacs tocando para vos
B) Que es... [repite]
A) Voy a... (repite)
B) Que es... [repite]




[el Satánico Dr. Cadillac chords][el Satánico Dr. Cadillac cifra]
© LaCuerda.net · aviso legal · privacidad · es · en · pt · contacto