Acordes de Guitarra » F »los Fabulosos Cadillacs » Destino de paria (Tab)

Destino de paria
los Fabulosos Cadillacs

  • Letra y Acordes
    A) LAm    
    Y va la tarde sobre el barrio 
                                      SOL
    con calor el corazón va lento 
    LAm
    y el destino que se empeña 
                                             SOL
    en ponerme siempre frente a vos. 
    
    A)
    Te amo tanto que no veo lo que soy 
    lo que tengo delante 
    tantas tardes esperando que salieras 
    tal vez sea hoy. 
    Ah, sería un milagro si 
    Ah, te enamoras de mí 
    Ah, yo solo vivo para vos 
    Ah, solo vivo para vos 
    
    B)mi
    
  • Tab p/Bajo
    Introducción de vientos:
    
    G |-------------------------------------------------------|
    D |----5-2-2------5-2-2------0-2-0------0-2-0-------------|
    A |--0---------0------------------------------------------|
    E |------------------------3---------3--------------------|
    
    
    G |-------------------------------------------------------|
    D |----5-2-2------5-2-2------0-2-0------0-2-0-------------|
    A |--0---------0------------------------------------------|
    E |------------------------3---------3--------------------|
    
    
    G |----------------------------2-0------------------------|
    D |--2---0-1-2-0------------2-----2-0--0-------0-0--------|
    A |-----2---------3-2-0-2-3---------------0-2-3-----2-0---|
    E |-------------------------------------------------------|
    
    
    G |-------------------------------------------------------|
    D |--5-2--------------------------------------------------|
    A |------5-2----------------------------------------------|
    E |-----------3-------------------------------------------|
    
    
    Va la
  • +
    ¡Colabora con nosotros!
    Envíanos tu versión de esta canción

Letra de Destino de paria
Y va la tarde sobre el barrio
con calor el corazón va lento
y el destino que se empeña
en ponerme siempre frente a vos.
Te amo tanto que no veo lo que soy
lo que tengo delante
tantas tardes esperando que salieras
tal vez sea hoy.
Ah, sería un milagro si
Ah, te enamoras de mí
Ah, yo solo vivo para vos
Ah, solo vivo para vos
me quedo sin tu mirada
si no hay manera
de que pueda enamorarte
irme al otro lado es lo mejor.
Y fue la tarde noche triste ya llego
porque no has salido
es la historia de uno más
que se murió de amor
si pudiera yo sacarte de mi alma
y cambiar el destino
seguiría estando solo
como un paria eso es lo que soy.
Ah, sería un milagro si
Ah, te enamoras de mí
Ah, yo solo vivo para vos
Ah, solo vivo para vos



© LaCuerda.net · aviso legal · privacidad · contacto