Tablatura para Bajo de los Fabulosos Cadillacs: Basta de llamarme así
Conexión · Inscripción
Letras y Acordes
Pantalla Completa
Imprimir
Versión Texto
Añadir Favorito
Otras Versiones

Mostrar Diagramas
Desfile Automático
Formato del Texto


Basta de llamarme así(BAJ)

los Fabulosos Cadillacs

calidad:
fabu0054
AUTOR: Gabriel Fernandez Capello
ALBUM: Bares y Fondas
Enviado por Erick
Esta es una nueva versión de la canción que ya antes habian hecho
 Los Fabulosos Cadillacs.
Esta versión está un tono arriba que la anterior.
El bajeo no está dificil, los tonos aparecen en este orden tanto
en la musica como en la letra.
                A
G|----------------------------|
D|----------------------------|
A|-------77777---------77777--|
E|-5-5--5--------5-5--5-------|
             E
G|----------------------|
D|-------99999----------|
A|-7-7--7-------7---7-8-|
E|----------------------|
                 F#m
G|-------9----9-----------9----9----|
D|---------11---11----------11---11-|
A|-9-9---------------9-9------------|
E|----------------------------------|
                        D
G|---------11----11-------------11------11----|
D|------------12----12--------------12-----12-|
A|--------------------------------------------|
E|-10-10-----------------10-10----------------|
          A                E
G|-------6---7---8-|--9---7---6------|
D|---7-------------|--------------9--|
A|-----4---5---6---|7---5---4--------|
E|-5---------------|------------7----|
Y vuelve a comenzar.

Para el final se dan notas largas dando los tonos B-F#-C#-G#,
despues se toca un ritmo como de Blues sobre la primera y la
quinta de esos mismos tonos y va muriendo.
Esta es mi primera transcripción, espero que les ayude.
Saludos a mis campañeros del grupo Bombón y los River’s, en
especial para la tecladista y para los dos guitarristas
Este fichero es trabajo propio de su transcriptor y representa su interpretación personal de la canción. El material contenido en esta página es
para exclusivo uso privado, por lo que se prohibe su reproducción o retransmisión, así como su uso para fines comerciales.

© LaCuerda.net · Aviso Legal · Privacidad