Acordes de Guitarra » E »Extremoduro » Pedrá (Tab)

Pedrá
Extremoduro

Letras, Acordes y Tabs para Guitarra, Bajo y Ukulele

  • Guitarra 1 (Robe)
    
    
    
                                                                                    
    E||--------------------------|----------------------|--------------------------|
    B||--------------------------|----------------------|--0-----0-----------0-----|
    G||--------0-----------0-----|-----------0----------|--2--------2--1-----------|
    D||-----2-----2--1--------1--|--0-----0-------------|--2--2-----------2-----2--|
    A||--2--------------2--------|-----2----------------|--0-----------------------|
    E||--------------------------|----------------------|--------------------------|
    
    
                                                                          
    -------------------|--------------------------|----------------------|
    -------------------|--------------------------|----------------------|
    --0----------------|--------0-----------0-----|-----------0----------|
    -------------------|-----2-----2--1--------1--|--0-----0-------------|
    -------------------|--2--------------
  • Guitarra2 (Uoho)
    
    
    
                                                                
    E||------------------|------------------|------------------|
    B||------------------|------------------|------------------|
    G||------------------|------------------|------------------|
    D||------------------|------------------|------------------|
    A||------------------|------------------|------------------|
    E||------------------|------------------|------------------|
    
    
                                                                      
    ------------------------------------|----------------------------|
    ----------------12------------------|----------------------------|
    --12----15/-14--14h-12--------------|----------------------------|
    --12----12------12------14h12-------|----------------------------|
    --12--------------------------14h12-|--10------9-10-10------9-10-|
    ------------------------------------|----------------------------|
    
    
                                                              
  • +
    ¡Colabora con nosotros!
    Envíanos tu versión de esta canción






[Pedrá chords][Pedrá cifra]
© LaCuerda.net · aviso legal · privacidad · es · en · pt · contacto