Acordes de Guitarra » E »Extremoduro » Hay Días (Tab)

Hay Días
Extremoduro

  • Tablatura
    e------------------------------------------------------------------------------
    b--6-5-3---6-5-3----6-5-3-----3--------6-5-3---6-5-3----6-5-3-----3------------
    g--------5--------5-------2-5---2------------5--------5-------2-5---2----------
    d------------------------------------------------------------------------------
    a------------------------------------------------------------------------------
    E------------------------------------------------------------------------------
    
    e-----------------------5-----5-----5-----5-----------------------------------
    b--8-6-5-6-5-3------3-5---3-5---3-5---3-5---3-5-5-----------------------------
    g--------------5--------------------------------------------------------------
    d-----------------------------------------------------------------------------
    a-----------------------------------------------------------------------------
    E-----------------------------------------------------------------------------
    
    e--------------------8--------------------------------------------------------
    b--8-6-5-6-5-3---------10-8-10-8-5-8-5-3-5-3-1---4-1-2------------------------
    g-----------------------------------------------------------------------------
    d-----------------------------------------------------------------------------
    a-----------------------------------------------------------------------------
    E-----------------------------------------------------------------------------
    
  • +
    ¡Colabora con nosotros!
    Envíanos tu versión de esta canción

Letra de Hay Días
VERSO 1
Hay días que parecen asfixiantes
Como la historia de aquel soñador
Que lloraba y que no le quería nadie
y dejo de tomar aire
y su vida se apago
Hay días en los que me hace falta
Cantarte aquella canción
Leer algunas de tus cartas
Ofrecerte una mirada
Después que apagaste el sol
PRECORO
Ya dejo todo sin encontrarme nada
Ya no te fumo no te doy calada
Echo yo el humo que quema tu espalda
Ya estoy seguro de que tu adiós no mata
VERSO 2
Por que hay kilómetros como metros
Por que soy más de lo que soy
Por que doy lo que me sale del pecho
Y anima ese trecho por qué no se a donde voy
Ya dejo todo sin encontrarme nada
Ya no te fumo no te doy calada
Echo yo el humo que quema tu espalda
Ya estoy seguro de que tu adiós no mata
Ya dejo todo sin encontrarme nada
Ya no te fumo no te doy calada
Echo yo el humo que quema tu espalda
Ya estoy seguro de que tu adiós no mata



© LaCuerda.net · aviso legal · privacidad · contacto
DINAMICO