Tablatura para Guitarra de Extremoduro: Deltoya
Conexión · Inscripción
Letras y Acordes
Pantalla Completa
Imprimir
Versión Texto
Añadir Favorito
Otras Versiones

Mostrar Diagramas
Desfile Automático
Manipular Acordes
Formato del Texto


Deltoya(TAB)

Extremoduro

calidad:
extr0081
AUTOR: Extremoduro  corregir
ALBUM: desconocido
Enviado por nacho
     palm mute.............................
     E                                      E  E  E  E  E  E  E
E||--------------------------------------------------------------|
B||--------------------------------------------------------------|
G||-----------------------------------------------0--0--0--0--0--|
D||-----------------------------------------------2--2--2--2--2--|
A||--0--------------------------------------0--0-----------------|
E||--------------------------------------------------------------|


  E  E  E  E  E  E  E  E     E  E  E  E  E  E  E  E
--------------------------|--------------------------|
--------------------------|-----------0--0--0--0-----|
-----------2--2--2--2-----|-----------0--0--0--0--0--|
-----------3--3--3--3--3--|-----------------------2--|
--3--3--3--------------3--|--0--0--0-----------------|
--------------------------|--------------------------|


  E  E  E  E  E  E  E  E     E  E  E  E  E  E  E  E
--------------------------|--------------------------|
--------------------------|--------------------------|
-----------2--2--2--2--2--|-----------0--0--0--0--0--|
--2--2--2--3--3--3--3--3--|-----------2--2--2--2--2--|
--3--3--3-----------------|--0--0--0-----------------|
--------------------------|--------------------------|


  E  E  E  E  E  E  E  E     E  E  E  E  E  E  E  E
--------------------------|--------------------------|
--------------------------|-----------0--0--0--0-----|
-----------2--2--2--2-----|-----------0--0--0--0--0--|
-----------3--3--3--3--3--|-----------------------2--|
--3--3--3--------------3--|--0--0--0-----------------|
--------------------------|--------------------------|


  E  E  E  E  E  E  E  E     E  E  E  E  E  E  E  E
--------------------------|--------------------------|
--------------------------|--------------------------|
-----------2--2--2--2--2--|-----------0--0--0--0--0--|
--2--2--2--3--3--3--3--3--|-----------2--2--2--2--2--|
--3--3--3-----------------|--0--0--0-----------------|
--------------------------|--------------------------|


  E  E  E  E  E  E  E  E     E  E  E  E  E  E  E  E
--------------------------|--------------------------|
--------------------------|-----------0--0--0--0-----|
-----------2--2--2--2-----|-----------0--0--0--0--0--|
-----------3--3--3--3--3--|-----------------------2--|
--3--3--3--------------3--|--0--0--0-----------------|
--------------------------|--------------------------|


  E  E  E  E  E  E  E  E     Q.     E  H
--------------------------|---------------------|
--------------------------|---------------------|
-----------2--2--2--2--2--|---------2--L--------|
--2--2--2--3--3--3--3--3--|--2------------------|
--3--3--3-----------------|---------------------|
--------------------------|---------------------|


  Q.     E  H           Q.     E  H           Q.     E  H
---------------------|---------------------|---------------------|
---------1--L--------|---------------------|---------1--L--------|
---------------------|---------2--L--------|---------------------|
--3------------------|--2------------------|--3------------------|
---------------------|---------------------|---------------------|
---------------------|---------------------|---------------------|


  Q.     E  H           Q.     E  H           Q.     E  H
---------------------|---------------------|---------------------|
---------------------|---------1--L--------|---------------------|
---------2--L--------|---------------------|---------2--L--------|
--2------------------|--3------------------|--2------------------|
---------------------|---------------------|---------------------|
---------------------|---------------------|---------------------|


  Q.     E  H           W
---------------------|-------------------|
---------1--L--------|-------------------|
---------------------|-------------------|
--3------------------|-------------------|
---------------------|-------------------|
---------------------|-------------------|


  palm mute.......................................
  E                                                E  E  E  E  E  E  E
----------------------------------------------------------------------
----------------------------------------------------------------------
---------------------------------------------------------0--0--0--0--0
---------------------------------------------------------2--2--2--2--2
--0------------------------------------------------0--0---------------
----------------------------------------------------------------------


  E  E  E  E  E  E  E  E     E  E  E  E  E  E  E  E
--------------------------|--------------------------|
--------------------------|-----------0--0--0--0-----|
-----------2--2--2--2-----|-----------0--0--0--0--0--|
-----------3--3--3--3--3--|-----------------------2--|
--3--3--3--------------3--|--0--0--0-----------------|
--------------------------|--------------------------|


  E  E  E  E  E  E  E  E     W                   W
--------------------------|-------------------|-------------------|
--------------------------|-------------------|-------------------|
-----------2--2--2--2--2--|--2----------------|--L----------------|
--2--2--2--3--3--3--3--3--|--2----------------|--L----------------|
--3--3--3-----------------|--0----------------|--L----------------|
--------------------------|-------------------|-------------------|


  H        E  Q     E     Q.     E  H           H.           E.  S
--------------3p----0--|---------0--L--------|---------------------|
-----------------------|--0------------------|---------------------|
--2--------L-----------|---------------------|--2------------2-----|
--2--------L-----------|---------------------|--2------------2---3-|
--0--------L-----------|---------------------|--0------------0---3-|
-----------------------|---------------------|-------------------1-|


  H.           E.  S    H.           E.  S    H.           E.  S
---------------------|---------------------|---------------------|
---------------------|---------------------|---------------------|
-------------------2-|--L------------2-----|---------------------|
--L------------L---2-|--L------------2---3-|--L------------L---5-|
--L------------L---0-|--L------------0---3-|--L------------L---5-|
--L------------L-----|-------------------1-|--L------------L---3-|


  H.           E.  S    H.           E.  S    H.           E.  S
---------------------|---------------------|---------------------|
---------------------|---------------------|---------------------|
---------------------|---------------------|---------------------|
--L------------L---2-|--L------------L---5-|--L------------L---2-|
--L------------L---2-|--L------------L---5-|--L------------L---2-|
--L------------L---0-|--L------------L---3-|--L------------L---0-|


  W                   E  S S E  S S E  S S S E.
-------------------|-----------------------------|
-------------------|-----------------------------|
-------------------|-----------------------------|
--L----------------|-----------------------------|
--L----------------|--7------7------7------0-3---|
--L----------------|--5--x-x-5--x-x-5--x-x---1---|


  E  S S E  S S E  S S S E.     E  S S E  S S E  S S S E.
-----------------------------|-----------------------------|
-----------------------------|-----------------------------|
-----------------------------|-----------------------------|
-----------------------------|-----------------------------|
--7------7------7------7-5---|--7------7------7------0-3---|
--5--x-x-5--x-x-5--x-x-5-3---|--5--x-x-5--x-x-5--x-x---1---|


                                PM
  E  S S E  S S E  S S S E.     E  E  E  E  E  E  S E.
-----------------------------|--------------------------|
-----------------------------|--------------------------|
-----------------------------|--------------------------|
-----------------------------|--------------------------|
--7------7------7------7-5---|--7--7--7--7--7--7--7-5---|
--5--x-x-5--x-x-5--x-x-5-3---|--5--5--5--5--5--5--5-3---|


  E  E  E  E  E  E  E  E     H        H
--------------------------|--------------------|
--------------------------|--------------------|
--------------------------|--------------------|
--------------------------|--5-----------------|
--7--7--7--7--7--7--7--7--|--3--------5--------|
--5--5--5--5--5--5--5--5--|-----------3--------|


                               PM
  E.   S E.  S E.   S E  E     E  E  E  E  E  E  S E.
--3p---2--------------------|--------------------------|
---------3------------------|--------------------------|
-------------2--------------|--------------------------|
---------------5p---4-0-----|--------------------------|
-------------------------0--|--7--7--7--7--7--7--7-5---|
----------------------------|--5--5--5--5--5--5--5-3---|


  E  E  E  E  E  E  E  E     H        Q.     E     W
--------------------------|---------------------|-------------------|
--------------------------|---------------------|-------------------|
--------------------------|------------------7--|--L----------------|
--------------------------|--5---------------7--|--L----------------|
--7--7--7--7--7--7--7--7--|--3--------5------5--|--L----------------|
--5--5--5--5--5--5--5--5--|-----------3---------|-------------------|


  palm mute.......................................
  E                                                E  E  E  E  E  E  E
----------------------------------------------------------------------
----------------------------------------------------------------------
---------------------------------------------------------0--0--0--0--0
---------------------------------------------------------2--2--2--2--2
--0------------------------------------------------0--0---------------
----------------------------------------------------------------------


  E  E  E  E  E  E  E  E     E  E  E  E  E  E  E  E
--------------------------|--------------------------|
--------------------------|-----------0--0--0--0-----|
-----------2--2--2--2-----|-----------0--0--0--0--0--|
-----------3--3--3--3--3--|-----------------------2--|
--3--3--3--------------3--|--0--0--0-----------------|
--------------------------|--------------------------|


  E  E  E  E  E  E  E  E
--------------------------|
--------------------------|
-----------2--2--2--2--2--|
--2--2--2--3--3--3--3--3--|
--3--3--3-----------------|
--------------------------|


  palm mute.......................................
  E                                                E  E  E  E  E  E  E
----------------------------------------------------------------------
----------------------------------------------------------------------
---------------------------------------------------------0--0--0--0--0
---------------------------------------------------------2--2--2--2--2
--0------------------------------------------------0--0---------------
----------------------------------------------------------------------


  E  E  E  E  E  E  E  E     E  E  E  E  E  E  E  E
--------------------------|--------------------------|
--------------------------|-----------0--0--0--0-----|
-----------2--2--2--2-----|-----------0--0--0--0--0--|
-----------3--3--3--3--3--|-----------------------2--|
--3--3--3--------------3--|--0--0--0-----------------|
--------------------------|--------------------------|


  E  E  E  E  E  E  E  E
--------------------------|
--------------------------|
-----------2--2--2--2--2--|
--2--2--2--3--3--3--3--3--|
--3--3--3-----------------|
--------------------------|


  palm mute.......................................
  E                                                E  E  E  E  E  E  E
----------------------------------------------------------------------
----------------------------------------------------------------------
---------------------------------------------------------0--0--0--0--0
---------------------------------------------------------2--2--2--2--2
--0------------------------------------------------0--0---------------
----------------------------------------------------------------------


  E  E  E  E  E  E  E  E     E  E  E  E  E  E  E  E
--------------------------|--------------------------|
--------------------------|-----------0--0--0--0-----|
-----------2--2--2--2-----|-----------0--0--0--0--0--|
-----------3--3--3--3--3--|-----------------------2--|
--3--3--3--------------3--|--0--0--0-----------------|
--------------------------|--------------------------|


  E  E  E  E  E  E  E  E
--------------------------|
--------------------------|
-----------2--2--2--2--2--|
--2--2--2--3--3--3--3--3--|
--3--3--3-----------------|
--------------------------|


  palm mute.......................................
  E                                                E  E  E  E  E  E  E
----------------------------------------------------------------------
----------------------------------------------------------------------
---------------------------------------------------------0--0--0--0--0
---------------------------------------------------------2--2--2--2--2
--0------------------------------------------------0--0---------------
----------------------------------------------------------------------


  E  E  E  E  E  E  E  E     E  E  E  E  E  E  E  E
--------------------------|--------------------------|
--------------------------|-----------0--0--0--0-----|
-----------2--2--2--2-----|-----------0--0--0--0--0--|
-----------3--3--3--3--3--|-----------------------2--|
--3--3--3--------------3--|--0--0--0-----------------|
--------------------------|--------------------------|


  E  E  E  E  E  E  E  E
--------------------------|
--------------------------|
-----------2--2--2--2--2--|
--2--2--2--3--3--3--3--3--|
--3--3--3-----------------|
--------------------------|


  palm mute.......................................
  E                                                E  E  E  E  E  E  E
----------------------------------------------------------------------
----------------------------------------------------------------------
---------------------------------------------------------0--0--0--0--0
---------------------------------------------------------2--2--2--2--2
--0------------------------------------------------0--0---------------
----------------------------------------------------------------------


  E  E  E  E  E  E  E  E     E  E  E  E  E  E  E  E
--------------------------|--------------------------|
--------------------------|-----------0--0--0--0-----|
-----------2--2--2--2-----|-----------0--0--0--0--0--|
-----------3--3--3--3--3--|-----------------------2--|
--3--3--3--------------3--|--0--0--0-----------------|
--------------------------|--------------------------|


  E  E  E  E  E  E  E  E     W                   W
--------------------------|-------------------|-------------------|
--------------------------|-------------------|-------------------|
-----------2--2--2--2--2--|--2----------------|--L----------------|
--2--2--2--3--3--3--3--3--|--2----------------|--L----------------|
--3--3--3-----------------|--0----------------|--L----------------|
--------------------------|-------------------|-------------------|


  H        E  Q     E     Q.     E  H           H.           E.  S
--------------3p----0--|---------0--L--------|---------------------|
-----------------------|--0------------------|---------------------|
--2--------L-----------|---------------------|--2------------2-----|
--2--------L-----------|---------------------|--2------------2---3-|
--0--------L-----------|---------------------|--0------------0---3-|
-----------------------|---------------------|-------------------1-|


  H.           E.  S    H.           E.  S    H.           E.  S
---------------------|---------------------|---------------------|
---------------------|---------------------|---------------------|
-------------------2-|--L------------2-----|---------------------|
--L------------L---2-|--L------------2---3-|--L------------L---5-|
--L------------L---0-|--L------------0---3-|--L------------L---5-|
--L------------L-----|-------------------1-|--L------------L---3-|


  H.           E.  S    H.           E.  S    H.           E.  S
---------------------|---------------------|---------------------|
---------------------|---------------------|---------------------|
---------------------|---------------------|---------------------|
--L------------L---2-|--L------------L---5-|--L------------L---2-|
--L------------L---2-|--L------------L---5-|--L------------L---2-|
--L------------L---0-|--L------------L---3-|--L------------L---0-|


  W                   E  S S E  S S E  S S S E.
-------------------|-----------------------------|
-------------------|-----------------------------|
-------------------|-----------------------------|
--L----------------|-----------------------------|
--L----------------|--7------7------7------0-3---|
--L----------------|--5--x-x-5--x-x-5--x-x---1---|


  E  S S E  S S E  S S S E.     E  S S E  S S E  S S S E.
-----------------------------|-----------------------------|
-----------------------------|-----------------------------|
-----------------------------|-----------------------------|
-----------------------------|-----------------------------|
--7------7------7------7-5---|--7------7------7------0-3---|
--5--x-x-5--x-x-5--x-x-5-3---|--5--x-x-5--x-x-5--x-x---1---|


                                PM
  E  S S E  S S E  S S S E.     E  E  E  E  E  E  S E.
-----------------------------|--------------------------|
-----------------------------|--------------------------|
-----------------------------|--------------------------|
-----------------------------|--------------------------|
--7------7------7------7-5---|--7--7--7--7--7--7--7-5---|
--5--x-x-5--x-x-5--x-x-5-3---|--5--5--5--5--5--5--5-3---|


  E  E  E  E  E  E  E  E     H        H
--------------------------|--------------------|
--------------------------|--------------------|
--------------------------|--------------------|
--------------------------|--5-----------------|
--7--7--7--7--7--7--7--7--|--3--------5--------|
--5--5--5--5--5--5--5--5--|-----------3--------|


                               PM
  E.   S E.  S E.   S E  E     E  E  E  E  E  E  S E.
--3p---2--------------------|--------------------------|
---------3------------------|--------------------------|
-------------2--------------|--------------------------|
---------------5p---4-0-----|--------------------------|
-------------------------0--|--7--7--7--7--7--7--7-5---|
----------------------------|--5--5--5--5--5--5--5-3---|


  E  E  E  E  E  E  E  E     H        Q.     E     W
--------------------------|---------------------|-------------------|
--------------------------|---------------------|-------------------|
--------------------------|------------------7--|--L----------------|
--------------------------|--5---------------7--|--L----------------|
--7--7--7--7--7--7--7--7--|--3--------5------5--|--L----------------|
--5--5--5--5--5--5--5--5--|-----------3---------|-------------------|


                                          H        H
-------------------|-------------------|--------------------|
-------------------|-------------------|--------------------|
-------------------|-------------------|--2-----------------|
-------------------|-------------------|--2--------3--------|
-------------------|-------------------|--0--------3--------|
-------------------|-------------------|-----------1--------|


  H        H           E  E  Q    E  E  Q
--------------------|------------------------|
-----------3--------|------------------------|
-----------2--------|--2--2--2---------------|
--5--------0--------|--2--2--2----3--3--3----|
--5-----------------|--0--0--0----3--3--3----|
--3-----------------|-------------1--1--1----|


            |----3----|
  Q    Q    Q    Q    Q       H        H           H        H
---------------------------|--------------------|--------------------|
---------------------------|--------------------|-----------3--------|
------------7----7----7----|--2-----------------|-----------2--------|
--5----5----7----7----7----|--2--------3--------|--5--------0--------|
--5----5----5----5----5----|--0--------3--------|--5-----------------|
--3----3-------------------|-----------1--------|--3-----------------|


                                     |----3----|
  E  E  Q    E  E  Q       Q    Q    Q    Q    Q
------------------------|---------------------------|
------------------------|---------------------------|
--2--2--2---------------|------------7----7----7----|
--2--2--2----3--3--3----|--5----5----7----7----7----|
--0--0--0----3--3--3----|--5----5----5----5----5----|
-------------1--1--1----|--3----3-------------------|


  H        H           H        H           E  E  Q    E  E  Q
--------------------|--------------------|------------------------|
--------------------|-----------3--------|------------------------|
--2-----------------|-----------2--------|--2--2--2---------------|
--2--------3--------|--5--------0--------|--2--2--2----3--3--3----|
--0--------3--------|--5-----------------|--0--0--0----3--3--3----|
-----------1--------|--3-----------------|-------------1--1--1----|


            |----3----|
  Q    Q    Q    Q    Q       H        H           H        H
---------------------------|--------------------|--------------------|
---------------------------|--------------------|-----------3--------|
------------7----7----7----|--2-----------------|-----------2--------|
--5----5----7----7----7----|--2--------3--------|--5--------0--------|
--5----5----5----5----5----|--0--------3--------|--5-----------------|
--3----3-------------------|-----------1--------|--3-----------------|


                                     |----3----|
  E  E  Q    E  E  Q       Q    Q    Q    Q    Q
------------------------|---------------------------|
------------------------|---------------------------|
--2--2--2---------------|------------7----7----7----|
--2--2--2----3--3--3----|--5----5----7----7----7----|
--0--0--0----3--3--3----|--5----5----5----5----5----|
-------------1--1--1----|--3----3-------------------|


  H        H           H        H           E  E  Q    E  E  Q
--------------------|--------------------|------------------------|
--------------------|-----------3--------|------------------------|
--2-----------------|-----------2--------|--2--2--2---------------|
--2--------3--------|--5--------0--------|--2--2--2----3--3--3----|
--0--------3--------|--5-----------------|--0--0--0----3--3--3----|
-----------1--------|--3-----------------|-------------1--1--1----|


            |----3----|
  Q    Q    Q    Q    Q       H        H           H        H
---------------------------|--------------------|--------------------|
---------------------------|--------------------|-----------3--------|
------------7----7----7----|--2-----------------|-----------2--------|
--5----5----7----7----7----|--2--------3--------|--5--------0--------|
--5----5----5----5----5----|--0--------3--------|--5-----------------|
--3----3-------------------|-----------1--------|--3-----------------|


                                     |----3----|
  E  E  Q    E  E  Q       Q    Q    Q    Q    Q
------------------------|---------------------------|
------------------------|---------------------------|
--2--2--2---------------|------------7----7----7----|
--2--2--2----3--3--3----|--5----5----7----7----7----|
--0--0--0----3--3--3----|--5----5----5----5----5----|
-------------1--1--1----|--3----3-------------------|


  H        H           H        H           E  E  Q    E  E  Q
--------------------|--------------------|------------------------|
--------------------|-----------3--------|------------------------|
--2-----------------|-----------2--------|--2--2--2---------------|
--2--------3--------|--5--------0--------|--2--2--2----3--3--3----|
--0--------3--------|--5-----------------|--0--0--0----3--3--3----|
-----------1--------|--3-----------------|-------------1--1--1----|


            |----3----|
  Q    Q    Q    Q    Q       H        H           H        H
---------------------------|--------------------|--------------------|
---------------------------|--------------------|-----------3--------|
------------7----7----7----|--2-----------------|-----------2--------|
--5----5----7----7----7----|--2--------3--------|--5--------0--------|
--5----5----5----5----5----|--0--------3--------|--5-----------------|
--3----3-------------------|-----------1--------|--3-----------------|


                                     |----3----|
  E  E  Q    E  E  Q       Q    Q    Q    Q    Q
------------------------|---------------------------|
------------------------|---------------------------|
--2--2--2---------------|------------7----7----7----|
--2--2--2----3--3--3----|--5----5----7----7----7----|
--0--0--0----3--3--3----|--5----5----5----5----5----|
-------------1--1--1----|--3----3-------------------|


  H        H           H        H           E  E  Q    E  E  Q
--------------------|--------------------|------------------------|
--------------------|-----------3--------|------------------------|
--2-----------------|-----------2--------|--2--2--2---------------|
--2--------3--------|--5--------0--------|--2--2--2----3--3--3----|
--0--------3--------|--5-----------------|--0--0--0----3--3--3----|
-----------1--------|--3-----------------|-------------1--1--1----|


            |----3----|
  Q    Q    Q    Q    Q       H        H           H        H
---------------------------|--------------------|--------------------|
---------------------------|--------------------|-----------3--------|
------------7----7----7----|--2-----------------|-----------2--------|
--5----5----7----7----7----|--2--------3--------|--5--------0--------|
--5----5----5----5----5----|--0--------3--------|--5-----------------|
--3----3-------------------|-----------1--------|--3-----------------|


                                     |----3----|
  E  E  Q    E  E  Q       Q    Q    Q    Q    Q
------------------------|---------------------------|
------------------------|---------------------------|
--2--2--2---------------|------------7----7----7----|
--2--2--2----3--3--3----|--5----5----7----7----7----|
--0--0--0----3--3--3----|--5----5----5----5----5----|
-------------1--1--1----|--3----3-------------------|


  H        H           H        H           E  E  Q    E  E  Q
--------------------|--------------------|------------------------|
--------------------|-----------3--------|------------------------|
--2-----------------|-----------2--------|--2--2--2---------------|
--2--------3--------|--5--------0--------|--2--2--2----3--3--3----|
--0--------3--------|--5-----------------|--0--0--0----3--3--3----|
-----------1--------|--3-----------------|-------------1--1--1----|


            |----3----|
  Q    Q    Q    Q    Q       H        H           H        H
---------------------------|--------------------|--------------------|
---------------------------|--------------------|-----------3--------|
------------7----7----7----|--2-----------------|-----------2--------|
--5----5----7----7----7----|--2--------3--------|--5--------0--------|
--5----5----5----5----5----|--0--------3--------|--5-----------------|
--3----3-------------------|-----------1--------|--3-----------------|


                                     |----3----|
  E  E  Q    E  E  Q       Q    Q    Q    Q    Q
------------------------|---------------------------|
------------------------|---------------------------|
--2--2--2---------------|------------7----7----7----|
--2--2--2----3--3--3----|--5----5----7----7----7----|
--0--0--0----3--3--3----|--5----5----5----5----5----|
-------------1--1--1----|--3----3-------------------|


  H        H           H        H           E  E  Q    E  E  Q
--------------------|--------------------|------------------------|
--------------------|-----------3--------|------------------------|
--2-----------------|-----------2--------|--2--2--2---------------|
--2--------3--------|--5--------0--------|--2--2--2----3--3--3----|
--0--------3--------|--5-----------------|--0--0--0----3--3--3----|
-----------1--------|--3-----------------|-------------1--1--1----|


            |----3----|
  Q    Q    Q    Q    Q       H        H           H        H
---------------------------|--------------------|--------------------|
---------------------------|--------------------|-----------3--------|
------------7----7----7----|--2-----------------|-----------2--------|
--5----5----7----7----7----|--2--------3--------|--5--------0--------|
--5----5----5----5----5----|--0--------3--------|--5-----------------|
--3----3-------------------|-----------1--------|--3-----------------|


                                     |----3----|
  E  E  Q    E  E  Q       Q    Q    Q    Q    Q
------------------------|---------------------------|
------------------------|---------------------------|
--2--2--2---------------|------------7----7----7----|
--2--2--2----3--3--3----|--5----5----7----7----7----|
--0--0--0----3--3--3----|--5----5----5----5----5----|
-------------1--1--1----|--3----3-------------------|


  H        H           H        H           E  E  Q    E  E  Q
--------------------|--------------------|------------------------|
--------------------|-----------3--------|------------------------|
--2-----------------|-----------2--------|--2--2--2---------------|
--2--------3--------|--5--------0--------|--2--2--2----3--3--3----|
--0--------3--------|--5-----------------|--0--0--0----3--3--3----|
-----------1--------|--3-----------------|-------------1--1--1----|


            |----3----|
  Q    Q    Q    Q    Q       W
---------------------------|--0----------------||
---------------------------|--1----------------||
------------7----7----7----|--2----------------||
--5----5----7----7----7----|--2----------------||
--5----5----5----5----5----|--0----------------||
--3----3-------------------|-------------------||
Este fichero es trabajo propio de su transcriptor y representa su interpretación personal de la canción. El material contenido en esta página es
para exclusivo uso privado, por lo que se prohibe su reproducción o retransmisión, así como su uso para fines comerciales.

© LaCuerda.net · Aviso Legal · Privacidad