Acordes de Guitarra » E »Estelares » Un día perfecto (Tab)

Un día perfecto
Estelares

  • Letra y Acordes
    C
    Otra vez que tu me dices que sí
    G
    Una vez que yo te digo por fin
    Am
    Estás fresca radiante en todo expectante
    G
    Tan bella creciente altiva elegante
    
    C
    Quiero decir que no me voy a ir
    G
    Ya estoy aquí sólo quiero subir
    Am
    Este ingenio brillante lámpara mediante
    G
    Este flor de atorrante contursi malenate
    
     F           Fm
    No sabes de un no
    
  • Tablatura
    B/--5-3------5-3-5------3-1-0----3-1-3----
    G/------5-0-------------------0-----------
    D/----------------------------------------
    A/----------------------------------------
    E/----------------------------------------
    
    e/-----------------------------------------------------
    B/--------------------------------3-1-0-3--1-0-3--1-0-3
    G/--5-4-2-5--4-2-5--4-2-5--4-2-------------------------
    D/-----------------------------------------------------
    A/-----------------------------------------------------
    E/-----------------------------------------------------
    
    e/--3/5---1---3/5--5-3-1-0--------
    B/--------------------------3-1---
    G/------------------------------2-
    D/--------------------------------
    A/--------------------------------
    E/--------------------------------
    
    
  • Tablatura
             C          C
    E ---------------------------------------
    A -------5--3--------------5--3----------
    D --3p5-------------3p5-5----------------
    G ---------------------------------------
    B ---------------------------------------
    e ---------------------------------------
    
    
    
    C
    Otra vez que tu me dices que sí
    G
    Una vez que yo te digo por fin
    Am
    Estás fresca radiante en todo expectante
    G
    Tan bella creciente altiva elegante
    
    C
    
  • Tab p/Bajo
    corregi algunas varias cosas q me parece puede sonar mejor
    
    Bueno, para empezar, el tema lo saque asi nomas,
     asi que cualquier cosita me mandan mail a asd.blah@hotmail.com,
     las correcciones son bienvenidas!!
    
    el tema arranca con la guitarra, el bajo arranca con toda la banda
    esto x 2 vendria a ser el verso
    G|------------------------------------------------------------------------|
    D|-----3s7------3s7-------------------------------------------------------|
    A|--3---------3-------------3s7-----3s7-----------------------------------|
    E|-----------------------3--------3-----------5-55-55-55-----33--3--33-----|
    
    
    G|--------------------------------------|
    D|--------------------------------------|
    A|--------------12-13-15----33----------|
    E|1-1-1-1----13-----------------5-5-----|
                                              pre estribillo
    
    G|--------------------------------------|
    D|--------------------------------------|
    A|--------------12-13-15----------------|
    E|1-1-1-1----13-------------3-S
  • +
    ¡Colabora con nosotros!
    Envíanos tu versión de esta canción

Letra de Un día perfecto
Otra vez que tu me dices que sí
Una vez que yo te digo por fin
Estás fresca radiante en todo expectante
Tan bella creciente altiva elegante
Quiero decir que no me voy a ir
Ya estoy aquí sólo quiero subir
Este ingenio brillante lámpara mediante
Este flor de atorrante contursi malenate
No sabes de un no
No hay luz que no concuerde
Tan cerca los dos
Los dioses resplandecen
Hoy es el día perfecto
nos quitamos lo puesto
Golondrinas en pleno cortejo hechicero
Hoy es el día perfecto
Todos hablan de esto
Carrusel de los sueños gorriones pequeños
Se puede ver a Ava Gardner en tí
Dicen que está Frank Sinatra en mí
Estás toda divina subiendo la cuesta
Toda exultante damasco crocante
Quiero decir que no voy a partir
Ya estoy aquí solo quiero subir
Este ingenio brillante lámpara mediante
Este flor de atorrante contursi malenate
No sabes de un no
No hay luz que no concuerde
Tan cerca los dos
Los dioses resplandecen
Hoy es el día perfecto
nos quitamos lo puesto
Golondrinas en pleno cortejo hechicero
Hoy es el dia perfecto
Todos hablan de esto
Carrusel de los sueños gorriones pequeños
Hoy es el día perfecto
nos quitamos lo puesto
Golondrinas en pleno cortejo hechicero
Hoy es el dia perfecto
Todos hablan de esto
Carrusel de los sueños gorriones pequeños
Acepto dudas y sugerencias…
Aguante estelares y La Plata!!! , y si se la quieren complicar
intenten sacar un par de adornitos que no puse para hacer simple
la cosa. Gracias Manuel Lombardi, por algunas correciones en las
Letras



© LaCuerda.net · aviso legal · privacidad · contacto