Acordes de Guitarra » E »Estelares » Aire (Tab)

Aire
Estelares

Letras, Acordes y Tabs para Guitarra, Bajo y Ukulele

  • e----------------
    B--3-3-2-2-0-0-0-  E
    G--2-2-2-2-2-2-0-
    
    e----------------
    B--3-3-2-2-0-0-0-  A
    G--2-2-2-2-2-2-0-
    
    e----------------
    B--3-3-2-2-0-0-0-  E   A
    G--2-2-2-2-2-2-0-
    
          Bm        E            F#m
    Hice todo lo posible por seguir,
               Bm          E           F#m       E
    cambié el color de mis ojos por marfil  ahaaa
                       A      E
    Acostumbrado a mentir,
                     A
    acostumbrado a reír.
    
  • E - A - E - A
    
         Bm        E           F#m
    Hice todo lo posible por seguir,
              Bm           E           F#m     E
    cambié el color de mis ojos por marfil  ahaaa
                      A    E                  A
    Acostumbrado a mentir,   acostumbrado a reír.
    
    Van mil días que no sé lo que decir,
    sin ideas de Buenos Aires a Junín,
    oyendo letras de folk,
    leyendo un libro de amor.
    
    **intro
    
    Te busqué, pues cada vez que te encontré
    y en tus ojos no vi brillos como aquellos ahaaa
    El show en el Tinto Bar
    cuando me viste cantar.
    
  • E|---10--10---9---9---7--7---5--4--|--10--10--9---9---7---7---9---9--|
    B|---10--10---10--10--9--9---7--5--|--10--10--10--10--9---9---10--10-|
    G|---------------------------------|---------------------------------|
    D|---------------------------------|---------------------------------|
    A|---------------------------------|---------------------------------|
    E|---------------------------------|---------------------------------|
    
    E|---10--10---9---9---7--7---5--4--|--------------------------------|
    B|---10--10---10--10--9--9---7--5--|--------------------------------|
    G|---------------------------------|-11--9--------------------------|
    D|---------------------------------|--------11--9--7------7---------|
    A|---------------------------------|------------------9-------------|
    E|---------------------------------|--------------------------------|
    
    Riff 2
    
    E|-----5---7----9--|
    B|---7---9---10----|
    G|-----------------|
    D|-----------------|
    
  • E---10--10---9---9---7--7---5--4--| --10--10--9---9---7---7---9---9--|
    B---10--10---10--10--9--9---7--5--| --10--10--10--10--9---9---10--10-|
    G---------------------------------| ---------------------------------|
    D---------------------------------| ---------------------------------|
    A---------------------------------| ---------------------------------|
    E---------------------------------| ---------------------------------|
    
    E---10--10---9---9---7--7---5--4--| E----------------------------------|
    B---10--10---10--10--9--9---7--5--| B--9h11h9--------------------------|
    G---------------------------------| G--------------11---9--7--9---7/11-|
    D---------------------------------| D----------------------------------|
    A---------------------------------| A----------------------------------|
    E---------------------------------| E----------------------------------|
    (Riff2)                                              (Riff 3)
    
    E -10--10--10-10--7--7--4----------|      E-------5------7-----9------|
    B -10--10--10--9--9--9--5----------|      B----7------9-----10--------|
    G ---------------------------------|      G---------------------------|
    D ---------------------------------|      D---------------------------|
    A ---------------------------------|      A---------------------------|
    
  • Aire - Estelares
    
    Intro
    
    1/--------------------------------------------------
    2/--------------------------------------------------
    3/---------------------------0--0-0--0-0-4-0-5-0-6-0
    4/-0--0-0--0-4-0-2-0-4-0-2-0------------------------
    
    1/----------------------------9--
    2/--------------------9-7----11--
    3/-7--7-7--7-7--7-7--------------
    4/-------------------------------
    
    
    Estrofa
    
    1/------------------------------------------11-22-44-
    2/-------------22-22-22-22--44-44-44-44--44----------
    3/-22-22-22-22---------------------------------------
    4/---------------------------------------------------
    
    1/-----------------------------------1-2-------------
    2/-------------22-22-22-22--44-44-44------22-22-22-0-
    3/-22-22-22-22--------------------------------------4
    4/---------------------------------------------------
    
    1/------------------------------
    2/------------0-2-22-22-22-0----
    3/-0-00-00-4-----------------4-0
    4/------------------------------
    
    
    -Estrofa
    -Intro
    -Estrofa x2
    
    Puente
    
    1/---1-4-1
  • +
    ¡Colabora con nosotros!
    Envíanos tu versión de esta canción

Letra de Aire
Hice todo lo posible por seguir,
cambié el color de mis ojos por marfil ahaaa
Acostumbrado a mentir,
acostumbrado a reír.
Van mil días que no sé lo que decir,
sin ideas de Buenos Aires a Junín,
oyendo letras de folk,
leyendo un libro de amor.
**repite el riff de la intro
Te busqué, pues cada vez que te encontré
y en tus ojos no vi brillos como aquellos
del show en el Tinto Bar
cuando me viste cantar.
El verano trajo luces sobre el mar
y entendí que hay mil maneras de dar.
Aunque no te haya hecho bien
a mi manera te amé.
*** repite el riff again
No soy el tipo que parezco ser,
no soy el tipo que tú crees ver,
sé que no es fácil para mi ser yo
ahaa
ahahahahaha
*** el riff otra vez
No hay una sola razón para sufrir,
las cosas siguen su curso como el rhin,
el río no tiene fin
sigue su vida en el mar.
Y hoy estás radiante como Nueva York,
y yo estoy pensando en otro lugar!
No tengo nada que hacer...
esto no da para más.
No tengo nada que hacer,
esto no da para más...
esto no da para más!
*************************
TEMAZO!!
ESTELARES y FALSOS PROFETAS lo mejor de Argentina!!!
el-salmon@hotmail.com




[Aire chords][Aire cifra]
© LaCuerda.net · aviso legal · privacidad · es · en · pt · contacto