Acordes de Guitarra » E »Elefante » La historia sin fin (Tab)

La historia sin fin
Elefante

Letras, Acordes y Tabs para Guitarra, Bajo y Ukulele

  • Gm                        
    Me dices que no  Que no volverás 
                                      F 
    Que ya nada importa que nada es igual
    Que se te acabó el vino y el pan 
                                   Gm
    Y poquito a poco las ganas de amar
    No sé que pasó, ni que pasará
                                  F
    A veces la vida nos trata tan mal
    Yo aquí seguiré, tú te marcharás
               Cm                    Bb
    Dejando recuerdos, y el último adiós
                   F
    Clavado en mi pecho
    
    D7         Gm                    F
           Fantasmas que muerden Cadenas que atan
    Cm
    Señales de una tempestad 
    
  • muy  especialmente  A  MI  madre  y  a E.L.A.S
    a  quienes  dedico  este  y  todos  mis  logros.
                      
    
    
                   INTRODUCCIÓN
    
    E --------------------------------------------
    B --------------------------------------------
    G 7-7--8-7-5---------8-7----5--7-7--5---------
    D 8-8--------8-7---7-----7-----8-8----7-5-----
    A --------------------------------------------
    E --------------------------------------------
    
    
    E ---------------------------------------------
    B ---------------------------------------------
    G --8-7-----7-7-8-7-5-------8-7---5--7-7--5----
    D 7-----7-5-8-8-------8-7-7-----7----8-8----7-5
    A ---------------------------------------------
    
  •              Gm
    Me dices que no, que no volverás,
                                        F
    que ya nada importa, que nada es igual,
    
    que se te acabó el vino y el pan
                                   Gm
    y poquito a poco las ganas de amar,
    
    no sé que pasó, ni que pasará,
                                   F
    a veces la vida nos trata tan mal,
    
    yo aquí seguiré, tú te marcharás
                  Cm
    dejando recuerdos,
                  A#                  F
    y el último adiós clavado en mi pecho.
    1. ---------------------------------------------|
    2. ---------------1-------1---------1-------1---|
    
  • Historia sin fin
    
    
    Intro…
        Gm                F
    G--------|--------|--------|--------|
    D--------|--------|--------|--------|
    A----1--5|----1--5|----0--3|----0--3|
    E-3------|-3------|-1------|-1------|
    
        Cm              Gm          D
    G--------|-------|--------|-------------
    D----1--5|---1--5|--------|-------------
    A-3------|-3-----|----1--5|-5---5-5-5-5-
    E--------|-------|-3------|-------------
    
    
    
    ESTROFA…
    
        Gm                        F
    G--------|--------|--------|--------|
    D--------|--------|--------|--------|
    A--1-1--5|--1-1--5|--1-1--5|--0-0--3|
    E-3------|-3------|-3------|-1------|
    
                                Gm
    g--------|-------|--------|---------
    D--------|-------|--------|---------
    A--0-0--3|--0-0-3|--0-0--3|---1-1-5-
    E-1------|-1-----|-1------|-3-------
    
    
        Gm                        F
    G--------|--------|--------|--------|
    D--------|--------|--------|--------|
    A--1-1--5|--1-1--5|--1-1--5|--0-0--3|
    E-3------|-3------|-3------|-1------|
    
    
                        Cm
    --------|
  • +
    ¡Colabora con nosotros!
    Envíanos tu versión de esta canción

Letra de La historia sin fin
Me dices que no Que no volverás
Que ya nada importa que nada es igual
Que se te acabó el vino y el pan
Y poquito a poco las ganas de amar
No sé que pasó, ni que pasará
A veces la vida nos trata tan mal
Yo aquí seguiré, tú te marcharás
Dejando recuerdos, y el último adiós
Clavado en mi pecho
Fantasmas que muerden Cadenas que atan
Señales de una tempestad
Sabor amargo a soledad
Millones de sueños dormidos muriendo
El crudo invierno por llegar
La triste historia sin final
Y que puedo hacer, de que servirá
ahogar esta pena, quererte olvidar
si vives en mí, si nunca te irás
te llevo tan dentro
no sé lo que haré ni sé lo que harás
pero si regresas me vas a encontrar
Yo aquí seguiré, tú te marcharás
Dejando recuerdos, y el último adiós
Clavado en mi pecho
Fantasmas que muerden Cadenas que atan
Señales de una tempestad
Sabor amargo a soledad
Millones de sueños dormidos muriendo
El crudo invierno por llegar
La triste historia sin final
Mi mundo se ha quedado parado
Y esta vida la quiero caminar
Pero a tu lado
Fantasmas que muerden Cadenas que atan
Señales de una tempestad
Sabor amargo a soledad
Millones de sueños dormidos muriendo
El crudo invierno por llegar
La triste historia sin final
6 6 7 8 8 6




[La historia sin fin chords][La historia sin fin cifra]
© LaCuerda.net · aviso legal · privacidad · es · en · pt · contacto