Acordes de Guitarra » E »Elefante » El Abandonao (Tab)

El Abandonao
Elefante

Letras, Acordes y Tabs para Guitarra, Bajo y Ukulele

  • e----------------------------------------------------------
    B----------------------------------------------------------
    G----------------------------------------------------------
    D----------------------------------------------------------
    A----1-1-----3------1-------1-1------3------1-----1-1-----3
    E--3------3------3------3---------3------3------3------3---
    
                              Gm             
    e---3/10---15---10------------------------------------------------------
    B--------------------13---11-------------6-----6/8--8-----3--1----------
    G------------------------------12/5---5-----5--------------------3--0---
    D-----------------------------------------------------------------------
    A-----------------------------------------------------------------------
    E-----------------------------------------------------------------------
    
    
                               Cm      F                        Gm
    Anoche pude ver cuando te fuiste,solito me quede y no dije nada
    Gm                              Cm     F                        Gm
    tal vez esta cancion te suene triste pero me esta llevando la chingada
    
  • Am                          Dm
    Anoche pude ver cuando te fuiste
    G                           C        E7
    Solito me quedé y no dije nada
    Am                               Dm
    Tal vez esta canción te suene triste
    G                             C          E7
    Pero me está llevando la chingada
    
             Am
    Y lo que me digas
          Dm
    De memoria me lo se
            G                        C        E7
    Tus mentiras no me servirán de nada
         Am                 Dm
    Te lo perdiste ojalá te vaya bien
                G
    Yo me voy por donde vine
                C          E7
    
  •                             Bm
    Anoche pude ver cuando te fuiste
      E                       F#m
    solito me quede y no dije nada
                                   Bm
    tal ves esta cancion te suene triste
       E                         F#m
    pero me esta llevando la chingada
    
    y lo que me digas
           Bm
    de memoria me lo se
            E                       F#m
    tus mentiras no me serviran de nada
                         Bm
    tu te lo perdiste ojala te valla bien
           E                         F#m
    yo me voy por donde vine se que no me perdere no no
                 Bm
    Abandonado, un exiliado 
    
  • e|---------------------|--------------|
    B|---------------------|--------------|
    G|---------------------|--------------|
    D|---------------------|--------------|
    A|---1---3---1---3---1-|---1---3---1--|
    E|-3---3---3---3---3---|-3---3---3----|
    
    
    e|---8/10----15---10\8-6----------------------------|
    B|-----------------------8\6-----6---6/8------------|
    G|-----------------------------7---7-------7\5-3-0--|
    D|--------------------------------------------------|
    A|--------------------------------------------------|
    E|--------------------------------------------------|
    
    
    VERSO 1
    Gm
    
                               Cm        F                       Gm
    
  • () - Nota fantasma <- dejar sonar una sola vez y muy ligera.
    
    INTRO
    Gtr. 2
              (x5)
    e|---------------------|--------------|
    B|---------------------|--------------|
    G|---------------------|--------------|
    D|---------------------|--------------|
    A|---1---3---1---3---1-|---1---3---1--|
    E|-3---3---3---3---3---|-3---3---3----|
    
    Gtr. 1
    e|-------15---10\8-6----------------------------|
    B|-8/15--------------8\6-----6---6/8------------|
    G|-------------------------7---7-------7\5-3-0--|
    D|----------------------------------------------|
    A|----------------------------------------------|
    E|----------------------------------------------|
    
    
  •                            Cm
    Anoche pude ver cuando te fuiste
    1. ----------------------------------|
    2. ----------------------------4-----|
    3. ------------------------------5---|
    4. --------------------------------5-|
    5. ----------------------------------|
    6. ----------------------------------|
       F                       Gm 
    solito me quedé y no dije nada,
    1. --------------------------------|
    2. --------------------------3-----|
    3. ----------------------------3---|
    4. ------------------------------5-|
    5. --------------------------------|
    6. --------------------------------|
                                   Cm
    tal vez esta canción te suene triste
    1. -------------------------------------|
    2. -------------------------------4-----|
    
  • Gm: 355333
    Cm: 335543
    F:  133211
    D#: 668886
    A#: 113331
    D:  000232
    Am: 002210
    Dm: 000231
    G:  310003
    C:  032010
    E:  022100
    ----------
    
    [intro bajo -repetir toda la intro-]
          Gm                         Gm          
    E-||-----------------------------------------------------
    B-||-----------------------------------------------------
    G-||-----3---5---3---5----3---------3---5---3---5----3---
    D-||---5---5---5---5---5----------5---5---5---5---5------
    A-||-----------------------------------------------------
    
  • +
    ¡Colabora con nosotros!
    Envíanos tu versión de esta canción
  • Tutorial
    HD
    Como Tocar El Abandonao de Elefante En Guitarra
    8:11

Letra de El Abandonao
Anoche pude ver cuando te fuiste,solito me quede y no dije nada
tal vez esta cancion te suene triste pero me esta llevando la chingada
y lo que me digas de memoria me lo se tus mentiras no me serviran de nada
te lo perdiste ojala te vaya bien yo me voy por donde vine se que no me perdere no!no!
Abandonao un exiliado de tu boca de tus manos de tu corazon
sin rumbo fijo voy de la mano de mis sueños bagabundos
y me importa poco que me diga el mundo !que la abandonao¡
El tiempo es el doctor de los dolidos para sanar las penas que te embriagan
yo siempre me las curo con tequila poniendo a Jose Alfredo y a Sabina,
y no pasa nada se que no me morire,como dice la cancion !¨Asi es la vida¨¡
y andando solos aunque sea la ultima vez solo vine a despedirme no te vine a detener no!no!
Abandonao un exiliado de tu boca de tus manos de tu corazon
sin rumbo fijo voy de la mano de mis sueños bagabundos
y me importa poco que me diga el mundo !que la abandonao¡
Asi estoy yo sin ti fallaste corazon ya lo pasado pasado te doy una cancion
de que manera te olvido desatarte el brillo fe besame besame mucho toquenme !¨La que se fue¨!
(REQUINTO)
Abandonao un exiliado de tu boca de tus manos de tu corazon
sin rumbo fijo voy de la mano de mis sueños bagabundos
y me importa poco que me diga el mundo !que la abandonao¡
ESO ES TODO ESPERO KE LES SIRVA SALUDOS A CD.JUAREZ Y LA BANDA AXIOMA.BYE!!!!!!




[El Abandonao chords][El Abandonao cifra]
© LaCuerda.net · aviso legal · privacidad · es · en · pt · contacto