Acordes de Guitarra » E »Elefante » Dejate seguir (Tab)

Dejate seguir
Elefante

Letras, Acordes y Tabs para Guitarra, Bajo y Ukulele

  • e --------------------------------------------------------------------
    b --------------------------------------------------------------------
    g --------------------------------------------------------------------          (x2)
    D --------------------------------------------------------------------
    A --2---3---2---3---5---7---7--2---3---2---3---5---7---7--8-----------
    E --------------------------------------------------------------------
    
    (rif 2)
    e ------0---1---3----5-----0---1---3----5-------0---1---3----5------0---1---3----5-----
    b ---3-------------------3--------------------3-------------------3--------------------
    g -------------------------------------------------------------------------------------
    D -------------------------------------------------------------------------------------
    A -------------------------------------------------------------------------------------
    E -------------------------------------------------------------------------------------
    
    (rif 1)
    e --------------------------------------------------------------------
    b --------------------------------------------------------------------
    g --------------------------------------------------------------------                  (x 1)
    D --------------------------------------------------------------------
    
  •  E                      A E                A    B
    Al final no queda nada y al llegar la marugada te buscare,
     A
    deja que tus sueños vuelen
    
    BAJEO
     E                      A E                            A
    El tiempo va no se detiene, para aceptar lo que se detiene
          B         A
    te extrañare, dejame invadir tu espacio
     B
    dejate seguir
    
    
    CORO:
     C#m     A              E       C#m      A             E
    Para llevarte a las estrellas, para llegar a donde quieras
     C#m     A           E
    para tomarte prisionera
          E         B                   C#m                     B
    
  •    C#m                      B                     E
    6|-----------------------------------------|
    5|-----------------------------------------|
    4|--6---6------6--------4---4-------4------|
    3|--6----6------6-------4----4-------4-----|
    2|--5-----4/5----4/5----4-----2/4-----2/4--|
    1|--4--------4------4---2---------2------2-|
    
    
    6|--------------------------
    5|--------------------------
    4|-1/2-1-2-3-3--1/2-1-2-3-4-
    3|--------------------------
    2|--------------------------
    1|--------------------------
    
    
    E
    Al final no queda nada
                               A
    
  • e|--------------------------------------------------------|
    B|--6-7--6-7--/--9--/--11-11--6-7--6-7--/--9--/--11-12----|
    G|--------------------------------------------------------|
    D|--------------------------------------------------------|
    A|--------------------------------------------------------|
    E|--------------------------------------------------------|
           guit. acust.
    e|--------------------------------------------------------|
    B|--6-7--6-7--/--9--/--11-11--6-7--6-7--/--9--/--11-12----|
    G|--------------------------------------------------------|punteo
    D|--------------------------------------------------------|
    A|--------------------------------------------------------|
    E|--------------------------------------------------------|
         *        electrica
    e|---4----------------------------|
    B|---4----------------------------|
    G|---6--------6---------6---------|
    D|-- 6---------6--6------6--6-----|
    A|---5----------5---------5-------|
    E|---4--------------4---------4---|
    
  • +
    ¡Colabora con nosotros!
    Envíanos tu versión de esta canción

Letra de Dejate seguir
(rif 2)
(rif 1)
Al final no queda nada
y al llegar la madrugada
te buscare
deja que tus sueños vuelen.
(RIF 1)
El tiempo va no se detiene
para aceptar lo que se tiene
te extrañare
dejame invadir tu espacio
dejate seguir.
Para llevarte a las estrellas
ara llegar a donde quieras
para tomarte prisionera
y asi tener tu voz
bailando en mi cabeza
bailando en mi cabeza.
(RIF 1)
y que mas da otra mañana
al despertar por la ventana
te buscare
que con la lluvia el sol se muere.
El tiempo va no se detiene
y aceptar es suficiente
te extrañare
dejame invadir tu espacio
dejame seguir.
Para llevarte a las estrellas
ara llegar a donde quieras
para tomarte prisionera
y asi tener tu voz
bailando en mi cabeza
bailando en mi cabeza.
(RIF 2) Y (RIF 1)
Para llevarte a las estrellas
ara llegar a donde quieras
para tomarte prisionera
y asi tener tu voz
bailando en mi cabeza
bailando en mi cabeza.
Y TERMINAMOS CON (RIF 1) X2
BUENO ESTA ES TODA LA ROLA QUIERO MANDAR UN SALUDO A SALAMANCA GUANAJUATO
YY ALEJANDRA TE AMO CON TODO MI CORAZON Y NO ME DARE POR VENCIDO HASTA QUE SEAS
MIA.




[Dejate seguir chords][Dejate seguir cifra]
© LaCuerda.net · aviso legal · privacidad · es · en · pt · contacto
DINAMICO