Acordes de Guitarra » D »Duncan Dhu » En algún lugar (Tab)

En algún lugar
Duncan Dhu

Letras, Acordes y Tabs para Guitarra, Bajo y Ukulele

  • INTRO [Em G D]  x 2
          [Em Bm C G D Em Bm C]
          [G D Am C] x 2
    
    
    Em    G     D          Em      G D Em
    En algun lugar de un gran pais
         G     D     Em  G D Em  
    olvidaron construir
          G      D      Em        G D Em
    un lugar donde no queme el sol
          G            D    Em  G D Em
    y al nacer no haya que morir
    
    
           Bm
    Y en la sombra
      C            G   D Em
    mueren genios sin saber
           Bm
    
  • e----------8-9-11-11-9-8-9-8-----9-8---9-8------|
    B-9-9-9-11-------------------9-------9-----9-9--|
    G-----------------------------------------------|
    
    
    MIm SOL RE  x4
    SOL RE MIm LAm DO  x2
    
    
         SOL    RE       MIm            SOL RE MIm
    En algun lugar de un gran pais
    
         SOL    RE    MIm         SOL RE MIm
    olvidaron constuir
    
         SOL   RE      MIm        SOL RE MIm
    un hogar donde no queme el sol
    
         SOL           RE    MIm      SOL RE MIm
    y al nacer no haya que morir
    
  • Em G D  x4
    G D Em Am C G  x2
    
    G---------------
    D---------------
    A---10-9-7/(2)--
    E---------------
    
    
    PUNTEO
    e------------8--9/11-11--9-8-9-8-----9-8---9-8------|
    B-9---9-9-11---------------------9-------9-----9-9--|
    G---------------------------------------------------|
    
    
    Em   G      D           Em
    En algún lugar de un gran país
        G     D     Em
    olvidaron construir
        G        D         Em
    
  • INTRO: Em [G D Em] x3.
    
    
    MAIN RIFF
    
    Esta fue la ultima que saque con unos camaradas que conformabamos
    un grupo "t3" (es el nombre) y aqui esta para que la disfruten
    
    EN ALGUN LUGAR.
    
    
      G  D  Em   G            D        Am        C
    |----------|----------7-8-10--10---8-7-8-7---8-7---8-7----|
    |-8--7-5---|-8-8--10-----------------------8-----8--------|
    |----------|----------------------------------------------|
    |----------|----------------------------------------------|
    |----------|----------------------------------------------|
    |----------|----------------------------------------------|x2
    
    RIFF 1 (*)
    
  • INTRO: Em [G D Em] x3.
    
    
    MAIN RIFF
    
    Esta fue la ultima que saque con unos camaradas que conformabamos
    un grupo "t3" (es el nombre) y aqui esta para que la disfruten
    
    EN ALGUN LUGAR.
    
    
      G  D  Em   G         D         Am            C
    |-3V-------|-3--3--3-5-7-7/10-10-8-7-8-7-------8-7-8-7----|
    |-------5V-|-----------------------------8-------------8-|
    |----7V----|-------------------------------(9)------------|
    |----------|----------------------------------------------|
    |----------|----------------------------------------------|
    |----------|----------------------------------------------|
    
    RIFF 1 (*)
    
  • 1ǀ------------------------------------------ǀ
    2ǀ---11b-11b-11b-11b------15b-15b-15b-15b---ǀ
    3ǀ------------------------------------------ǀ
    4ǀ------------------------------------------ǀ
    5ǀ------------------------------------------ǀ
    6ǀ------------------------------------------ǀ
    
    1ǀ----------------------------------------------------------ǀ
    2ǀ-----------21b------------------------------------------5-ǀ
    3ǀ------------------------7b-7b-7b---------------------7b---ǀ
    4ǀ-////-21---------////---8b-8b-8b---7-5-7-5-7-5---5-7------ǀ
    5ǀ-////------------////--------------------5-7-5------------ǀ
    6ǀ-////------------////-------------------------------------ǀ
    
    1ǀ-----12---------------------------------ǀ
    2ǀ-15b----15---10-10---7------------------ǀ
    3ǀ-------------12-12--------9-------------ǀ
    4ǀ------------------------9---------------ǀ
    5ǀ----------------------------------------ǀ
    6ǀ--------------------------------6-5-3-5-ǀ
    
  • ESTA ES UNA DE LAS CANCIONES QUE MAS ME GUSTAN,LES
    PONGO LA BASE PARA QUE USTEDES LE ECHEN LOS ARREGLOS
    QUE QUIERAN(ESTA COMPLETA DEL INICIO HASTA EL FINAL ).
    
    INTRO
    
    G------------------------------------------
    D------------------------------------------
    A---10-9-7/(2)--3---3---3-3-3-3-3-3-3-3----
    E------------------------------------------
    
    G----------------------------------------
    D----------------------------------------
    A------------5--5-5---7--7-7---3--3-3----
    E---3--3-3-------------------------------
    
    G----------------------------------------
    D----------------------------------------
    A------------5--5-5---7--7-7---3--3-3----
    E---3--3-3-------------------------------
    
    EN ALGUN LUGAR DE UN GRAN PAIS....
    
    G----------------------------------------
    D----------------------------------------
    A-----------------5-----------------5----
    E---0--0-0---3--3-----0--0-0---3--3------
    
    G----------------------------------------
    D----------------------------------------
    
  •     INTRO                  (E,A,D,G)
    
    G-------------------------------------------|
    D-------------------------------------------|
    A---10-9-7/(2)--3---3---3333333333333333333-|
    E-------------------------------------------|
    
    G----------------------------------------|
    D----------------------------------------|  X2
    A------------5-5-556--7-7-775--3-3-332---|
    E---3-3-332------------------------------|
    
    EN ALGUN LUGAR DE UN GRAN PAIS....
    
    G----------------------------------------|
    D----------------------------------------|  X4
    A--------------55357-------------55357---|
    E---0-00-0--3---------0-00-0--3----------|
    
    Y EN LAS SOMBRAS.....
    
    G-----------------------------------------------------|
    D-----------------------------------------------------|
    A------------2-22-2---3-33-3--10-9-7-77-7---2-22-2----|
    E---0-00-0--------------------------------------------|
    
    G----------------------------------------------|
    D----------------------------------------------|
    A---3-33-3---3-33-3---3-33-3---3333333333
  • +
    ¡Colabora con nosotros!
    Envíanos tu versión de esta canción
  • Tutorial
    HD
    Como Tocar Guitarra EN ALGUN LUGAR de Duncan Dhu en guitarra acústica paso a paso clase cover
    9:20
  • Tutorial
    HD
    "NO LA HABÍAS ESCUCHADO", Las notas secretas de: EN ALGÚN LUGAR
    3:50
  • Tutorial
    HD
    En algún lugar - Duncan Dhu: SOLO GUITARRA #77
    0:32

Letra de En algún lugar
En algun lugar de un gran pais
olvidaron construir
un lugar donde no queme el sol
y al nacer no haya que morir
Y en la sombra
mueren genios sin saber
de su magia
concedida sin pedirlo
mucho tiempo antes de nacer
No hay camino que, llegue hasta aqui
y luego pretenda salir
con el fuego de el atardecer
arde la hierba
En algun lugar de un gran pais
olvidaron construir
un lugar donde no queme el sol
y al nacer no haya que morir
Un silbido,
cruza el pueblo y se ve,
a un jinete
que se marcha con el viento
mientras grita que no va a volver
Y la tierra aqui es de otro color
el polvo no te deja ver
los hombres ya no saben si lo son
pero lo quieren creer
las madres que ya no saben llorar
ven a sus hijos partir
la tristeza aqui no tiene lugar
cuando lo triste es vivir




[En algún lugar chords][En algún lugar cifra]
© LaCuerda.net · aviso legal · privacidad · es · en · pt · contacto