Acordes de Guitarra » D »Duncan Dhu » Cien Gaviotas (Tab)

Cien Gaviotas
Duncan Dhu

Letras, Notas, Punteos, Tablaturas y Acordes de Guitarra (Tabs & Chords)

  • Letra y Acordes
    G C G C G C G C D D11 D D11
    
    
      A             Em           C
     Hoy el viento sopla mas de lo normal
          A         Em         C
     las olas intentando salirse del mar
          A              Em          C
     el cielo es gris y tu no lo podrás cambiar
      A             Em             C
     mira hacia lo lejos, busca otro lugar
         C                   G  C        G  C
     y cien gaviotas dónde irán, dónde irán.
    
    
      A                  Em              C
     Hoy no has visto a nadie con quien derrumbar
          A           Em           C
     los muros que gobiernan en esta ciudad
      A                  Em              C
    
  • Letra y Acordes
    G C G C G C G D Dsus4 D Dsus4
    
          A           Em         C
     Hoy el viento sopla mas de lo normal
          A         Em         C
     las olas intentando salirse del mar
          A              Em          C
     el cielo es gris y tu no lo podrás cambiar
      A             Em             C
     mira hacia lo lejos, busca otro lugar
         C                   G  C        G  C
     y cien gaviotas dónde irán, dónde irán.
    
    
      A                  Em              C
     Hoy no has visto a nadie con quien derrumbar
          A           Em           C
     los muros que gobiernan en esta ciudad
      A                  Em              C
     hoy no has visto a nadie con quien disfrutar
    
  • Tablatura
    e|----|-2-|-----------
    B|----|-2-|-----------
    G|----|-2-|-----------
    D|----|-2-|-----------
    A|----|-2-|-----------
    E|----|-2-|-----------
    
    Ahora vamos con los acordes:
    Tenemos que interpretar que
    la guitarra empieza aquí,
    por lo que serían...
    
    Sol(G),Do(C),La(A),Mim(Em),Re(D)
    y Resus4(Dsus4 unir el Re con el Sol)
    
      G    C    A    Em   D   Dsus4
    e-5----2----2----2----4----5--
    B-2----3----4----2----5----5--
    G-2----2----4----2----4----4--
    D-2----4----4----4----2----2--
    
  • Tab p/Bajo
    Duncan Dhu	Cien Gaviotas
    	
    
    G |---------------------------------------------------------------------------||
    D |---------------------------------------------------------------------------||
    A |---------------7--6-5---5--------------------------------------------------|| X 4
    E |--0-2-4-5--0-5--------5----------------------------------------------------||
    
       Antes de entrar a cantar, al final de la cuarta vez que se toca lo de antes
    
    G |---------------------------------------------------------------------------||
    D |--------------------------------9-6-9---9-6-9---9-6-9----------------------||
    A |---------------7--6-5---5-5-4-7-------7-------7-------7--------------------||
    E |--0-2-4-5--0-5--------5----------------------------------------------------||
    
    
        Hoy el viento sopla mas de lo normal...
    
    G |---------------------------------------------------------------------------||
    D |----------11-9-----7-4-7---7-4-7---7-4-7-----------------------------------||
    A |----9-6
  • +
    ¡Colabora con nosotros!
    Envíanos tu versión de esta canción

Letra de Cien Gaviotas
Hoy el viento sopla mas de lo normal
las olas intentando salirse del mar
el cielo es gris y tu no lo podrás cambiar
mira hacia lo lejos, busca otro lugar
y cien gaviotas dónde irán, dónde irán.
Hoy no has visto a nadie con quien derrumbar
los muros que gobiernan en esta ciudad
hoy no has visto a nadie con quien disfrutar
placeres que tan solo tu imaginarás.
y tus miradas dónde irán, dónde irán.
Hoy podrás beber y lamentar
que ya no volverán
sus alas a volar
cien gaviotas dónde irán, dónde irán, dónde irán....
Hoy el dia ya no es como los demás
el ron y la cerveza harán que acabes mal
nena, ven conmigo, déjate llevar
hoy te enseñaré donde termina el mar
y cien gaviotas dónde irán, dónde irán, dónde irán....
Hoy podrás beber y lamentar
que ya no volverán
sus alas a volar
cien gaviotas dónde irán, dónde irán, dónde irán....
ACORDES:
OBSERVACIONES Y CONSEJOS:
Al tocar la canción, intentad tocar con más intensidad
las 4 cuerdas más graves al tocar el G, y las 4 más
agudas al tocar el D y el D11.
Para cualquier duda, consejo, sugerencia, petición... mi
email: andcl85@hotmail.com
Gracias.



© LaCuerda.net · Aviso Legal · Privacidad