Acordes de Guitarra » D »Dos Minutos » como caramelo de limon (Tab)

como caramelo de limon
Dos Minutos

Letras, Acordes y Tabs para Guitarra, Bajo y Ukulele

  • INTRO:DO#LA#FA#SOL#    RIFF
    DO#           LA#
    Te regalare, te regalaré
    FA#
    un caramelo
    SOL#
    blanco de limón
                            LA#
    y en un papel yo dibujaré
    FA#                 SOL#
    todo lo que siento por vos.
    FA#                  DO#
    Un caramelo de limón;
    SOL#            DO#
    en mis manos tengo yo
    y con el mi corazón.
    FA#             DO#
    Un caramelo de limón
    SOL#            DO#
    en mis manos tengo yo
    
  • G|-----------------------------------------------
    D|-----------------------------------------2-5---
    A|-3--0-3--3-----------------0-3---------2------- x2
    E|---3----3---5-0-3-5--5-3-1-----1-0-1-3---------
    
    G|-----5----5------------------------------------
    D|----------------7-----------------------2-5-5--
    A|---3----3---3-------------0-3---------2-------3
    E|--------------5---5-5-3-1-----1-0-1-3----------
    
    
    [F G C]x4
    
    C            A
    Te regalaré, te regalaré
    F                  G
    un caramelo blanco de limón
    C             A
    y en un papel yo dibujaré
    F                  G
    
  • Intro                                   
    G|-----------------------------------|x4
    D|-----------------------------------|
    A|---------------------444444444444--|
    E|-22222222--44444444----------------|
    
    Verso
    G|-------------------------------------------------------------------------------|
    D|-------------------------------------------------------------------------------|
    A|-44444444----------------------------------------------------------------------|
    E|-----------66666666--22222222--4444444444444444--66666666--22222222--44444444--|
    
    G|--------------------------------------------------------------------------------|
    D|--------------------------------------------------------------------------------|
    A|-----------44444444------------44444444------------44444444------------44444444-|
    E|-22222222------------44444444------------22222222------------44444444-----------|
    
    Coro
    G|-------------------------------|x4
    D|-------------------------------|
    A|---------------------4444
  • +
    ¡Colabora con nosotros!
    Envíanos tu versión de esta canción

Letra de como caramelo de limon
Te regalare, te regalaré
un caramelo
blanco de limón
y en un papel yo dibujaré
todo lo que siento por vos.
Un caramelo de limón;
en mis manos tengo yo
y con el mi corazón.
Un caramelo de limón
en mis manos tengo yo
y con el tu corazón.
Un caramelo de limón
un caramelo blanco de limón.
Un caramelo de limón
un caramelo blanco de limón.
RIFF:FA#/SOL#/DO#




[como caramelo de limon chords][como caramelo de limon cifra]
© LaCuerda.net · aviso legal · privacidad · es · en · pt · contacto
DINAMICO