Acordes de Guitarra » D »Dos Minutos » Ya No Sos Igual (Tab)

Ya No Sos Igual
Dos Minutos

Letras, Acordes y Tabs para Guitarra, Bajo y Ukulele

  • C                  G
    Carlos se vendio al barrio de Lanus
          Am                  F
    el barrio que lo vio crecer
    
    Ya no vino nunca mas por el bar de fabian
    y se olvido de pelearse los domingos en a cancha
    
    Por las noches patrulla la ciudad
    molestando y levantando a los demas.
    
    [Estribillo]:
         C
    Ya no sos igual
         G
    Ya no sos igual
           Am              F
    sos un vigilante de la Federal
    F-G
    C
    
  • 3| 3------3-3-3-3-3-3-3-3-3------  sigue Abajo
    4| ------------------------------
    
    1| ---------------------------------------------
    2| ---------------------------------------------
    3| -5----5-5-5-5-5-5-5-5-1-----1-1-1-1-1-1-1-1--  x2
    4| ---------------------------------------------
    
    Intro de la Guitarra en el segundo del bajo entra con esto
    
    E|-------3---3---5---5---13-------------------
    B|--1--1--------------------------------------
    G|--------------------------------------------
    D|--------------------------------------------
    A|-------------------------------------------- x1
    E|--------------------------------------------
    
    Intro : (FA, DO, RE, LA#) x2 (en el primero muteado)
    (toda la intro dura 4 tiempos mas lo de la bat)
    
    
  • B: |-----------------|
    G: |-5--5------------|
    D: |-----------------|
    A: |-----------------|
    E: |-----------------|
    
    Con Palm Muting se toca: [C G A F] x2
    En la segunda vuelta los ultimos dos acordes (A y F) se tocan sin PM
    
    C                  G
    Carlos se vendio al barrio de Lanus
          D                  F
    el barrio que lo vio crecer
    Ya no vino nunca mas
    por el bar de fabian
    y se olvido de pelearse
    los domingos en a cancha
    Por las noches patrulla la ciudad
    molestando y levantando a los demas.
    
    
  • esta es la version 100% correcta de la cancion.
    esta la mande porque las otras no me da confianza,
    en el punteo inicial.saludos al cife y al francoco.
    Rodrigo Jaldin P.
    ---------------------------------------------
         ya no sos igual
    ---------------------------------------------
    intro
    |------3~-3-5~-5---13------------|
    |-1~-1---------------------------|
    |--------------------------------|
    |--------------------------------|
    |--------------------------------|
    |--------------------------------|
    ~=dejar sonar
    
    intro 2
    |--------------------------------|
    |--------------------------------|
    |-10----------------(x1)---------|
    |-10--10--12--8------------------|
    |-8---10--12--8------------------|
    |-----8---10--6------------------|
    PM...............
    
    |--------------------------------|
    |---------------------(x1)-------|
    |----5--7~--3~--5~---------------|
    |-3--5--7~--3~--5~---------------|
    |-3--3--5~--1~--3~---------------|
    |-1------------------------------|
    PM.....
    
  • Intro : FA-DO-RE-SIb
    
    |------3~-3-5~-5---13------------|
    |-1~-1---------------------------|
    |--------------------------------|
    |--------------------------------|
    |--------------------------------|
    |--------------------------------|
    
    FA                DO
    Carlos se vendio al barrio de Lanus,
       RE                  SIb
    el barrio que lo vio crecer.
    Ya no vino nunca mas por el bar de Fabian
    y se olvido de pelearse los domingos en la cancha.
    
    Por las noches patrulla la ciudad
    molestando y levantando a los demas
    Ya no sos igual, ya no sos igual
    Sos un vigilante de la federal
    
  • Intro:
    G|---------------------------------------------------|
    D|-3-33333333----------------------------------------|
    A|-------------3-333333333--5-555555555--1-111111111-|
    E|---------------------------------------------------|
    
    
    Verso: (Carlos se vendió... y Carlos se dejó...)
    G|------------------------------------------|
    D|--33333333--------------------------------|
    A|------------33333333--55555555--11111111--|
    E|------------------------------------------|
    (igual al intro, pero con un ritmo un poco distinto)
    
    
    Puente: (Sos buchon...)
    G|------------------------------------|
    D|---------33333333----------33333333-|
    A|-111-333-----------111-333----------|
    E|------------------------------------|
    (En D|-33333333-| es cuando dice 'Sos buchon, sos buchon')
    
    Orden:
    Intro  x 4
    Verso  x 4 (desde 'Carlos se vendió...' hasta '...federal')
    Puente x 1 ('Sos buchón, Sos buchón')
    Verso  x 1 (parte donde se repite el intro de guitarra)
    Puente x 1
    Verso  x 4 (desde 'Carl
  • H |x---x---x---x---|x---x---x---x---|x---x---x---x---|x---x---x---x---|
    R |----x-------x---|----x-------x---|----x-------x---|----x-------x---|
    B |x------xx-------|x------xx-------|x------xx-------|x------xx-------|
      (1 + 2 + 3 + 4 + |1 + 2 + 3 + 4 + |1 + 2 + 3 + 4 + |1 + 2 + 3 + 4 + )
    
    ACA ENTRA EL BAJO
    
    H |x---x---x---x---|x---x---x---x---|x---x---x---x---|x---x---x---x---|
    R |----x-------x---|----x-------x---|----x-------x---|----x-------x---|
    B |x------xx-------|x------xx-------|x------xx-------|x------xx-------|
      (1 + 2 + 3 + 4 + |1 + 2 + 3 + 4 + |1 + 2 + 3 + 4 + |1 + 2 + 3 + 4 + )
    
    H |x---x---x---x---|x---x---x---x---|x---x---x---x---|x---x---x-x-----|
    R |----x-------x---|----x-------x---|----x-------x---|----x---x-x-----|
    B |x------xx-------|x------xx-------|x------xx-------|x---------------|
      (1 + 2 + 3 + 4 + |1 + 2 + 3 + 4 + |1 + 2 + 3 + 4 + |1 + 2 + 3 + 4 + )
    
    ENTRA LA GUITARRA
    
    
    H |x---x---x---x---|x---x---x---x---|x---x---x---x---|x---x---x---x---|
    R |----x-------x---|--
  • +
    ¡Colabora con nosotros!
    Envíanos tu versión de esta canción

Letra de Ya No Sos Igual
Carlos se vendio al barrio de Lanus
el barrio que lo vio crecer
Ya no vino nunca mas por el bar de fabian
y se olvido de pelearse los domingos en a cancha
Por las noches patrulla la ciudad
molestando y levantando a los demas.
[Estribillo]:
Ya no sos igual
Ya no sos igual
sos un vigilante de la Federal
sos buchon
sos buchon
Carlos se dejo crecer el bigote
y tiene una 9 para él.
Ya no vino nunca mas
por el bar de fabian
y se olvido de pelearse
los domingos en a cancha.
El sabe muy bien que una bala
en la noche, en la calle, espera por él.
Ya no sos igual
Ya no sos igual
sos un vigilante de la Federal
sos buchon
sos buchon
Vos, sos buchón
de la Policía Federal
Vos, sos buchón
de la Policía Federal




[Ya No Sos Igual chords][Ya No Sos Igual cifra]
© LaCuerda.net · aviso legal · privacidad · es · en · pt · contacto