Acordes de Guitarra » D »División Minúscula » Las luces de esta ciudad (Tab)

Las luces de esta ciudad
División Minúscula

Letras, Acordes y Tabs para Guitarra, Bajo y Ukulele

  • F C-Am G
    
    F                     C
    Me arrodillado me arrastrado a decirte
    F                  Am
    Perdon una y otra vez
    F                       C
    Y al mismo tiempo te digo no puedo
    Am               G
    Prometer no hacerlo otra vez
    
    F -C Am -G
    
    F                      C                                           G
    E caminado a estos pasos hirientes
    F                Am
    solo por hacerme reir
    F                      C
    Y tengo un malo presentimiento
    Am                       G
    
  • F      C Am      G   x2
    
    F                 C  Am                G
    Me he arrodillado y me arrastrado a decirte
    F          C  Am       G F              C Am
    perdon una y otra ves y al mismo tiempo te digo no puedo
    F                       G
    prometer no hacerlo otra ves
    
    F          C Am      G   x2
    
    F                C  Am                G F         C Am    G
    He caminado estos pasos herientes solo por hacerme reir
    F                    C Am          G F
    y tengo un raro presentimiento que hay algo mas que sobrevivir
    F                        G
    Y escuchame muy bien...
    
    coro
    F            C        Am      G
    
  •       F       C   Am            G
    ---------------------------------------
    -------------1-1--1------------3-3-----
    --2----------0-0--2-x-x-x-x-x--0-0-x---
    --3-x-x-x-x--2-2--2-x-x-x-x-x--0-0-x---
    --3-x-x-x-x--3-3--0-x-x-x-x-x--2-2-x---
    --1-x-x-x-x--3-3---------------3-3-x---
    
    kmo no se kmo se llama este acorrde, pero lo
    bautizare kmoo C2 xD...
    ---3-3---
    ---3-3---
    ---0-0--- <--- C2 (SegÚn yoo xD,,)
    ---0-0---
    ---2-2---
    ---3-3---
    ---------
    
    F             C        Am                  G
    Me arrodillado y me eh arrastrado a decirte
    
  •   F            C    Am        G    X2
    -----------------------------------
    --1--1-1-1-1---1-1--1-1-1-1---3-3--
    --2--2-2-2-2---0-0--2-2-2-2---0-0--
    --3--3-3-3-3---2-2--2-2-2-2---0-0--
    --3--3-3-3-3---3-3--0-0-0-0---2-2--
    -----------------------------------
         . . . . .      . . . .
    
    Con la misma figura del intro empieaza el verso
    
    F                   C     Am                    G
    Me he arrodillado y me he arrastrado a decirte
    F          C   Am          G
    Perdón una y otra ves
    F                 C   Am
    Y al mismo tiempo te digo no puedo
    G (se alarga)
    Prometer no hacerlo otra vez
    
    
  •       F        C      Am          G            G
    e|------------------------------3-3-3-|    e|--3--|
    B|-1--1-1-1---1-1---1--1-1-1-1--0-0-0-|    B|--0--|
    G|-2--2-2-2---0-0---2--2-2-2-2--0-0-0-|    G|--0--|
    D|-3--3-3-3---2-2---2--2-2-2-2--0-0-0-|    D|--0--|
    A|-3--3-3-3---3-3---0--0-0-0-0--2-2-2-|    A|--2--|
    E|------------------------------3-3-3-|x 5 E|--3--| x15
          * * *            * * * *
    
    verso  0:25-0:36  x3                       0:36-0:40
          F        C      Am          G            G
    e|------------------------------3-3-3-|    e|--3--|
    B|-1--1-1-1---1-1---1--1-1-1-1--0-0-0-|    B|--0--|
    G|-2--2-2-2---0-0---2--2-2-2-2--0-0-0-|    G|--0--|
    D|-3--3-3-3---2-2---2--2-2-2-2--0-0-0-|    D|--0--|
    A|-3--3-3-3---3-3---0--0-0-0-0--2-2-2-|    A|--2--|
    E|------------------------------3-3-3-|    E|--3--| x15
          * * *            * * * *
    
    Verso 0:41-0:53  x3                              0:53-1:04
    
  • 0:25
    G|-------------------------------------------------------------|
    D|-------------------------------------------------------------|
    A|-----3-------------------3-------------------3---------------|
    E|11111-3-55555-7-8-7-11111-3-55555-7-8-7-11111-3-55555/88-333*|
    
    G|-------------------------------------------------------------|
    D|-------------------------------------------------------------|
    A|-----3-------------------3-------------------3---------------|
    E|11111-3-55555-7-8-7-11111-3-55555-7-8-7-11111-3-55555/88-333*|
    
    0:56
    G|--------------------------------|
    D|--------------------------------|
    A|--------------------------------|
    E|11111111111111111-33333333333333|
    
    Coro
    G|--------------------------------------------------|
    D|--------------------------------------------------|
    A|------------23232--------------3-2---------------|
    E|1111111-3333-----1111111-333333----1111111-3333333|
    
    G|-----------------|
    D|-----------------|
    A|-----------------|
    E|5-55-555-3-33-333|
    1:20
    G|-----------
  • Afinacion Standard
    
    Iverso  0:25-0:36  x3            0:36-0:40
    I
    I|------------------------------|  |---|
    I|------------------------------|  |---|
    I|----------3-3-0---------3-3-0-|  |---|
    I|1-1-1-1-1------5-5-5-5-5------|  |-3-|x15
    
    IVerso 0:41-0:53  x3       0:53-1:04
    I                       D|---|    |---|    |---|
    I                       A|---|    |---|    |---|
    I                       E|-3-|x15 |-1-|X15 |-3-|X15
    
    
    Z   Coro 1:04-1:15         1:16-1:19
    ZG|---------------------|  |------------------------|
    ZD|---------------------|  |------------------------|
    ZA|--------------3-3-2-2|x3|------------------------|
    ZE|1-1-1-1-1-3-3--------|  |-5-5-5-5-5-3-3-3-3-3-3-3|
    
    
    
    Iverso 1:20-1:39 (x5)         1:39-1:43
    IG|----------------------------|  |---|
    ID|----------------------------|  |---|
    IA|--------3-3-0---------3-3-0-|x3|---|
    IE|1-1-1-1------5-5-5-5-5------|  |-3-|x15
    I
    Iverso 1:44-1:54 x3             1:55-2:06
    I                   G|---|    |---|    |---|
    I                   D|---|    
  • +
    ¡Colabora con nosotros!
    Envíanos tu versión de esta canción

Letra de Las luces de esta ciudad
Me arrodillado me arrastrado a decirte
Perdon una y otra vez
Y al mismo tiempo te digo no puedo
Prometer no hacerlo otra vez
E caminado a estos pasos hirientes
Y tengo un malo presentimiento
Que hay algo mas que sobre vivir
y escúchame muy bien
no no me digas que hacer pues sabes
probable mente lo haga al revez
no te lo tomes tan personal no no no uo o oo
perdona si no llego estar en la cena
tampoco a desayunar
no pude evitar hacerle el amor a a las luces de esta ciudad
y si mi pierdo no busques tan lejos
seguro estoy por alli i i
no es que me este escondiendo de mi reflejo
es que no quiero que me veas asi
y escuchame muy bien
no no me digas que hacer pues sabes
probable mente lo haga al revez
no te lo tomes tan personal no no no uo o oo
Me arrodillado me arrastrado a decirte
Perdon una y otra vez
Y al mismo tiempo te digo no puedo
no no me digas que hacer pues sabes
probable mente lo haga al revez
no te lo tomes tan personal no no no uo o oo
no no me digas que hacer pues sabes
probable mente lo haga al revez
no soy tan joven menos tan viejo y se
cuando debo seder y no es hoy




[Las luces de esta ciudad chords][Las luces de esta ciudad cifra]
© LaCuerda.net · aviso legal · privacidad · es · en · pt · contacto