Acordes de Guitarra » D »División Minúscula » Sismo (Tab)

Sismo
División Minúscula

Letras, Acordes y Tabs para Guitarra, Bajo y Ukulele

  • Intro: Dm
    
    Estrofa 1:
    
    Dm
    Si esto no es un sismo
    Entonces me rindo no se que es
    Acaso hay guerra ahí afuera
    Y yo sigo aquí adentro viendo T.V.
    
    Dm
    He malgastado mi tiempo, aliento y silencio
    Para que
    Si nadie gasta su tiempo
    Atención y silencio en escucharme
    
    PreCoro:
    
    A#   C   Am
    Nada que ver, no hay nada que escuchar
    
  • D5 A#5 Y5  A5 C5 X5
    0   0  0   0  0  0
    0   0  0   0  0  0
    7   0  0   0  5  3
    7   8  10  7  5  3
    5   8  10  7  3  1
    0   6  8   5  0  0
    
    
    |--------------------------------------------|
    |-10-10--10-b-12-10------10-10-10--12-12-12--|
    |-10-10--10---12-10-X3---10-10-10--12-12-12--|
    |--------------------------------------------|
    |--------------------------------------------|
    |--------------------------------------------|
    
    
    |-------------------------------------|
    |10-105-5---------------------5-5-5---|
    |10-105-5---------------------5-5-5---|
    
  • xD Apenas lo estoy subiendo aki
    perdon x haceerlos esperar
    me costo un poco de trabajo xD
    |--------------------------------------------|
    |-10-10--10-b-12-10------10-10-10--12-12-12--|
    |-10-10--10---12-10-X3---10-10-10--12-12-12--|Esto lo hace la primera
    |--------------------------------------------|guitarra 3 veces!
    |--------------------------------------------|
    |--------------------------------------------|
    
    |------|
    |---10-|La segunda guitarra hace esto lo hace 16 veces
    |---10-|solo tienen que golpear 16 veces pero deben de llevar
    |------|el tiempo de la tarola cada vez que golpee la tarola
    |------|se de el golpe en la guitarra
    |------|
    Esto lo ace primerolasegundalira
    mientras la primera ace lo dearriba
    una vz y leugo las dos acen lo mismo-!!
    escuchen la cancion para agarrarle
    |------------------------------------!!
    |10-105-5---------------------5-5-5--!!
    |10-105-5---------------------5-5-5--|
    |---------7-7--7-5-7-X2--7-7-7-------!
    |---------7-7--7-5-7-----7-7-7--------!!
    |---------
  • Bueno esta es la cancion de division minuscula
    escuchen bn la canicion para poder sacrala bn
    espero que les sirva.
    
    
    |--------------------------------------------|
    |-10-10--10-b-12-10------10-10-10--12-12-12--|
    |-10-10--10---12-10-X3---10-10-10--12-12-12--|Esto lo hace la primera
    |--------------------------------------------|guitarra 3 veces!
    |--------------------------------------------|
    |--------------------------------------------|
    
    |------|
    |---10-|La segunda guitarra hace esto lo hace 16 veces
    |---10-|solo tienen que golpear 16 veces pero deben de llevar
    |------|el tiempo de la tarola cada vez que golpee la tarola
    |------|se de el golpe en la guitarra
    |------|
    
    
    Esto lo ace primero la segunda lira
    mientras la primera ace lo de arriba
    una vz y leugo las dos acen lo mismo-!!
    escuchen la cancion para agarrarle
    la onda
    |-------------------------------------|
    |10-105-5---------------------5-5-5--|
    |10-105-5---------------------5-5-5--|
    |---------7-7--7-5-7-X2--7-7-7--------|
    |---------
  • pm = paml mute
    h  = hammer on
    p  = pull of
    /  = slide
    
    
    INTRO
    E|------------------|-------------------|
    B|--9-9---9/7-7/9---|--9-9-9--11-11-11--|
    G|--9-9---9/7-7/9---|--9-9-9--11-11-11--|2x
    D|------------------|-------------------|
    A|------------X3----|-------------------|
    E|------------------|-------------------|
    
    E|------------------------------------------------------|
    B|-9-9-9/4-4-4--6-6-6/2-2-2-6-6-6/2-2-2---7-7-7--9-9-9--|
    G|-9-9-9/4-4-4--6-6-6/2-2-2-6-6-6/2-2-2---7-7-7--9-9-9--|
    D|------------------------------------------------------|
    A|------------------------------------------------------|
    E|------------------------------------------------------|
    
    VERSO
    Guitarra 1:" Si esto no es un sismo..."
    E|-------------------------------------------------|
    B|-------------------------------------------------|
    G|-777-33-555--777-22-333--777-22-555--777-33-555--|
    D|-777-33-555--777-22-333--777-22-555--777-33-555--| X4
    A|-555-11-333--555-00-111--555-00-333--555-11-333--|
    E|------------------
  • Bueno aqui les va esta buena cancion de division minuscula
    espero que les guste y le agarren la onda para asi perfeccionala
    con este tabs. XD
    
    Afinacion: D-A-D-G
    
    NO se si los tiempo esten bien ustedes escuchenla y traten de
    darse cuenta de los tiempos.
    
    Intro
    El bajo entra luego de un rato
    G----------------------------------------------
    D----------------------------------------------
    A----------------------------------------------
    D--0-0-0-0-0-0-0-0-0-0-0-0-888-101010----------
    
    ESte es el verso
    
    G----------------------------------------------------
    D----------------------------------------------------
    A----------------------------------------------------    x4
    D--00000-8-1010--00000--7-88-00000-8-1010--00000--7-88
    
    este es como una especie la especie de precoro:
    nada que ver.......
    
    G----------------------------------------------
    D----------------------------------------------
    A-1111-333-000000-11---------------------------  x3
    D----------------------------------------------
    
    para ap
  • +
    ¡Colabora con nosotros!
    Envíanos tu versión de esta canción

Letra de Sismo
Estrofa 1:
Si esto no es un sismo
Entonces me rindo no se que es
Acaso hay guerra ahí afuera
Y yo sigo aquí adentro viendo T.V.
He malgastado mi tiempo, aliento y silencio
Para que
Si nadie gasta su tiempo
Atención y silencio en escucharme
PreCoro:
Nada que ver, no hay nada que escuchar
Nada sorprende ya en este lugar
Ojala fuera tan bueno
Para aprender como tu para olvidar
Estrofa 2:
Si te preguntas que hago
Pongo risas y llantos sobre un papel
Aunque siempre estoy al mando
En mi cuerpo infectado me hace ceder
Si bebí más de la cuenta
Para eso en mi fiesta platiqué
Buscas el cliché en el arte
Olor a muerte en el aire
Una y otra vez
PreCoro:
No se si fue amor
Pero vaya que lo hicimos de lo mejor
Y que el mundo
Se muera de envidia
No se si es rock & roll
Pero no encuentro una excusa mejor
Mejor
Estrofa 3: (Corta)
Si esto no es un sismo
Entonces me rindo no se que es (BIS)
PreCoro:




[Sismo chords][Sismo cifra]
© LaCuerda.net · aviso legal · privacidad · es · en · pt · contacto