Acordes de Guitarra » D »División Minúscula » Sognare (Tab)

Sognare
División Minúscula

Letras, Acordes y Tabs para Guitarra, Bajo y Ukulele

  •      Bb        Bb/G        A/Bb        F       Gm         F#/D        D#
    1. --1---    1.--1---  1. --x---  1. --1--  1.--3---  1. --x---   1.--6--
    2. --x--     2.--x---  2. --1---  2. --1--  2.--3---  2.---x---   2.--8-
    3. --3---    3.--3---  3. --3---  3. --2--  3.--3---  3. --x---   3.--8--
    4. --3---    4.--3---  4. --3---  4. --3--  4.--5---  4. --4---   4.--8--
    5. --1---    5.--1---  5. --0---  5. --3--  5.--5---  5. --5---   5.--6--
    6. --x---    6.--3---  6. --x--   6. --1--  6.--3---  6. --2---   6.--x
    
    
    
    
    Bb                          Bb/G                    A/Bb
    se que un día te dije que jamas iba a fallarte pero hoy
    
                        F
    no se ni en donde estoy, menos se a donde voy
    
      Bb                            Bb/G
    y es que mas que curarme estas drogas solo logran
    
    
  • A (en 2 tiempos)
    A - F#m - C#m - E (2 veces)
    
    A
    Se que un día te dije
           F#m                     C#m
    que jamás iba a fallarte pero hoy
                         E
    no se ni en donde estoy menos a donde voy
     A                             F#m
    y es que mas que curarme estas drogas
                     C#m     E     A
    solo logran enfermarme maaaaaaaas
    
    A        F#m         C#m   E
    que te extrañe que mañana pueda ser un
          A         F#m          C#m
    poco peor, seré frío pero honesto cada
     E
    vez q yo te digo que:
    
  • INTRO: A#  - Gm - F x2
    
    A#
    Se que un día te dije
           Gm                     F
    que jamás iba a fallarte pero hoy
                         F
    no se ni en donde estoy menos a donde voy
     A#                             Gm
    y es que mas que curarme estas drogas
                     F     F
    solo logran enfermarme maaaas
    
    A#        Gm         F   F
    que te extrañe que mañana pueda ser un
          A#         Gm          F
    poco peor, seré frío pero honesto cada
     F
    vez q yo te digo que:
    
    
  • Sognare- DM
    Autor: ruben vilchis correo: daron_100@hotmail.com
    
    ESTA TAB, ES UN POCO LARGA, PERO ES 100% CORRECTA SE LOS
    ASEGURO NO HAY OTRA TAB TAN CORRECTA COMO ESTA, SOLO LEAN
     CADA PASO Y CADA RIFF DE TODA LA TAB, ESPERO  Y PUEDAN TOCAR
    ESTA SUPER ROLA DE DIVISION MINUSCULA.
    
    intro
    
    1era guitarra (los rasgueos en el 3er traste, empieza de
    abajo, arriba y terminas dando hacia abajo) x1 vez
    
    e----------------------------------------------------------
    b----------------------------------------------------------
    g-----3-3-3---3-3-3-----3-3-3---3-3-3----------------------
    d-----3-3-3---3-3-3-----3-3-3---3-3-3----------------------
    a-1-1-------1-------1-1-------1----------------------------
    e----------------------------------------------------------
    
    2do intro
    2da parte (1er guitarra)     x2 veces 1er riff
    e----------------------------------------------------------
    b--------------------------1-1-1-1-1-----------------------
    g--3-3-3-3-3---3-3-3-3-3---2-2-2-2-2-----------------------
    d--3-
  •     Bb5       Gm       Dm     F
    e----1---------1--------1---------------
    b--3--3------3--3------3--3-------3-3-3-
    g-3-3--3-33-3-3--3-33-3-3--3-3-3-3------
    d---------------------------------------
    a---------------------------------------
    E---------------------------------------
    
    
    
        Bb5       Gm       Dm     F
    e----1---------1--------1---------------
    b--3--3------3--3------3--3-------3-3-3-
    g-3-3--3-33-3-3--3-33-3-3--3-3-3-3------
    d---------------------------------------
    a---------------------------------------
    E---------------------------------------
    
    Ya de aqui se sigue la rola con los mismos
    acrdes solo hay unas variaciones en el precoro
    
  • Intro
    G.------------------
    D.------------------
    A.------------------
    E.--6>--3>--5>--1>--
    
    Verso
    Se que un dia te dije...
    G.------------------
    D.------------------
    A.------------------
    E.--6>--3>--5>--1>--
    
    Que Te Extraña...
    G.------------------
    D.------------------
    A.------------------
    E.--6>--3>--5>--1>--
    
    Pre-Coro
    No Puedo Prometer un por siempre...
    G.---------------------
    D.---------------------
    A.---------------------
    E.--3>--1>--5>--6>--5>-
    
    Todo lo que diga esta noche...
    G.----------
    D.----------
    A.----------
    E.--3>--1>--
    
    Coro
    Soñare contigo...
    G.------------------
    D.------------------
    A.------------------
    E.--6>--3>--5>--1>--
    
    Verso
    O naci enamorado...
    G.------------------
    D.------------------
    A.------------------
    E.--6>--3>--5>--1>--
    
    Porque No Mejor Sentir...
    G.------------------
    D.------------------
    A.------------------
    E.--6>--3>--5>--1>--
    
    Pre-Coro
    No Puedo Prometer un por siemp
  • Cr-crash
    C2-crash 2
    Rd-ride
    Hh-hi-hat
    t1-tom 1
    Ta-tarola
    Tp-tom de piso
    Bo-bombo
    Hp-pedal del hi-hat
      (f-flam)
    
    Intro
    
      |----------------| (2 vcs)
    
                       (-------x6-------)
    Cr|X---------------|----------------|----------------|
    Hh|--x-x-x-x-x-x-x-|x-x-x-x-x-x-x-x-|x-x-x-x-x-------|
    t1|----------------|----------------|--------------o-|
    Ta|----o-------o---|----o-------o---|----o-----o-oo--|
    Bo|o-------o-------|o-------o-------|o-------o-------|
      (1 + 2 + 3 + 4 + |1 + 2 + 3 + 4 + |1 + 2 + 3 + 4 + )
    
    
    1er Verso
    
                       (-------x3-------)                (-------x2-------)
    Cr|X---------------|----------------|X---------------|----------------|
    Hh|--x-x-xxx-x-x-x-|x-x-x-xxx-x-x-x-|--x-x-xxx-x-x-x-|x-x-x-xxx-x-x-x-|
    Ta|----o-------o---|----o-------o---|----o-------o---|----o-------o---|
    Bo|o-o-------o-----|o-o-------o-----|o-o-------o-----|o-o-------o-----|
      (1 + 2 + 3 + 4 + |1 + 2 + 3 + 4 + |1 + 2 + 3 + 4 + |1 + 2 + 3 + 4 + )
    
    
    Hh|x-x-x-xxx-x-----|
    t1|-----------
  • +
    ¡Colabora con nosotros!
    Envíanos tu versión de esta canción
  • Tutorial
    HD
    Como tocar SOGNARE en guitarra - División Minúscula [Tutorial Somos Posers]
    10:28

Letra de Sognare
se que un día te dije que jamas iba a fallarte pero hoy
no se ni en donde estoy, menos se a donde voy
y es que mas que curarme estas drogas solo logran
enfermarme mas, que te extraña que mañana pueda ser
un poco peor, seré frió pero honesto cada ves
que yo te digo, que no puedo prometer un por un siempre
ni siquiera se si puedo un hoy , todo lo que diga esta noche
olvídalo.
soñare contigo, si puedo dormir, las noches son largas desde
aquel día en el que yo te conocí.
oh nací enamorado o en verdad nunca lo he estado y no,
no es que no crea en el amor simplemente así soy,
si decir mañana es predecir y decir perfecto es mentir,
por que no mejor sentir, estos labios, estas manos,
que no paran aun que estoy tan débil, de intentarlo
y fallar tanto, las marcas en mis brazos dicen
no puedo prometer un por siempre, ni siquiera se si puedo un hoy,
todo lo que diga esta noche olvídalo
soñare contigo, si puedo dormir, las noches son largas desde
aquel día en el que yo te conocí.
mi ángel de la guarda, aguarda en tu cama, lo envié a cuidarte
por tu bien alejarte para siempre de mi,
no me arrepiento de nada que hice ayer, me arrepiento lo que
pude haber hecho, haber dicho y ya no podre hacerlo jamas,
no puedo prometer un por siempre, ni siquiera se si puedo un hoy,
todo lo que diga esta noche, esta noche
soñare contigo, si puedo dormir, las noches son largas desde
aquel día en el que yo te conocí.
mi ángel de la guarda, aguarda en tu cama, lo envié a cuidarte
por tu bien alejarte para siempre de mi.
dudas sugerencias tavo_hendrix@hotmail.com




[Sognare chords][Sognare cifra]
© LaCuerda.net · aviso legal · privacidad · es · en · pt · contacto