Acordes de Guitarra » D »Divididos » Nene de antes (Tab)

Nene de antes
Divididos

Letras, Acordes y Tabs para Guitarra, Bajo y Ukulele

  • Intro [D-Bm]
    
       D                          Bm   
       Peine cardenales bajo el chaparron
                         G7
       aves raras de un pasado por agua 
                       F7
       otra vez al brylcreem, yeeh
    
       Ponele las ventosas al hombre invisible 
       que el chiflete debajo de la puerta
       no para de sonar,  yeeeh
       
       Bm
       Nene de antes
       Con un cuatro en braguetas
       nene de antes
       con un diez en resaca
    
       Balcon de inconclusa serenata fue
    
  •    D                          Bm
       Peine cardenales bajo el chaparron
                         Csus7/G
       aves raras de un pasado por agua
                       Csus7/F
       otra vez al brylcreem, yeeh
    
       Ponele las ventosas al hombre invisible
       que el chiflete debajo de la puerta
       no para de sonar,  yeeeh
    
       Bm
       Nene de antes
       Con un cuatro en braguetas
       nene de antes
       con un diez en resaca
    
       Balcon de inconclusa serenata fue
       busco cama, vacaciones y llanto
       el turista mortal, yeeh
    
  • D                            Bm                           G5                           F5     
    Peine, cardenales bajo el chaparron, aves raras de un pasado por agua otra vez al bylcreem
    D                                 Bm                           G5                           F5
    Ponele, las vbentosas al hombre invisible, que el chiflete debajo de la puerta no para de sonar
    
    
    **ESTRIBILLO**: 'nene de antes..'
    1)----------------------------------------------------------------------------------------------------------------------|
    2)----------------------------------7--7---7----------------------------------7---7------------------7--7---7------7bb--|
    3)--9bb-9b-7----9p7-----------------7--7h9-7--9-7----9b-7--------------7-9-7--7h9-7------7-9b-7------7--7h9-7--9-7------|
    4)-----------9------9p7---------7h9---------------9b------9p7------7-9---------------7-9---------7h9--------------------|
    5)----------------------9p7-----------------------------------9p7-------------------------------------------------------|
    6)--------------------------9p7-----------------------------------------------------------------------------------------|
    
    D                          Bm                         G5                             F5  
    Balcón, de inconclusa serenata fue, busco cama, vacaciones y llantos, el turista mortal
    D                          Bm                        G5                                F5    
    Sudaba como una ballena en acensor a la consejera de esta locura se le fruncio el frances
    
    
    
  • e|----------------10---------------------------------------------|
    B|---------10--10----10------10-10------10p7--/7-----------------|
    G|----7-9--9b--------9b-9p7--9b-9b---/9-------/7-7---9---7v------|
    D|-/9----------------------------------------------9---9---------|
    A|---------------------------------------------------------------|
    E|---------------------------------------------------------------|
    
    
    e|---------------------------------------------------------------|
    B|---------------------------------------------------------------|
    G|----------------------7/9/7---7h9--/---------------------------|
    D|--9p7-----------------7/9/7---7h9--/---------------------------|
    A|------9/7p5---5--7/9--------9----------------------------------|
    E|------------7--------------------------------------------------|
    
    
    
       D                          Bm
       Peine cardenales bajo el chaparron
                         G7(no5)
    
  • en general estaba bien, le corregi algunas cosas q no sonaban bien,
    espero q les guste che
    INTRO:
    1|---------------------------------|X4
    2|---------------------------------|
    3|---------------------------------|
    4|-7-7-7-7-5-5-5-5-4-4-4-4-3-3-3-3-|
    
    1°VERSO (PEINE, CARDENALES...):
    1|---------------------------------------------|
    2|---------------------------------------9-----|
    3|-------------9-------------9-9-9-12-12-------|
    4|-10-10-10-10---10-10-10-10-------------------|
    
    1|-----------------------------------------------|
    2|------------------------12-12-9----------------|
    3|-------------9-------------------12-9----------|
    4|-10-10-10-10---10-10-10----------------12-10-9-|
    
    1|-----------------------------------------------------------|
    2|-------------------------7-8-9-----------------------------|
    3|---------------------9-9---------------------------9-7--7-5|
    4|-7-7-7-7-10-10-10-10-----------7-7-7-7-10-10-10-10---------|
    
    (“UN PASADO POR AGUA...”):
    1|--------------------------------
  • Intro
    
    Ride: X: Campana x: superficie(alterna corcheas)
    C: Caja
    
    Base                    fill
       1   2   3   4           1   2   3   4
    R :X-x-X-x-X-x-X-x-     r :X-x-X-x-X-x-X-x-
    C :----o-------o---     c :----o----o.-----
    T1:---------------- x3  t1:-----------oo--- )no se si son seiscillos
    T2:----------------     t2:-------------oo- )o fusas
    Ch:----------------     ch:---------------o )
    B :o—-o-o--o—-o-o--     B :o—-o-o—-o-------
    
    Peine cardenales...     ...aves raras de un...
    Base                    fill
       1   2   3   4           1   2   3   4
    Hh:X-X-X-X-X-X-X-X-     hh:X-X-X-X-X-X-X-X-
    C :----o-------o---     c :----o----o.-----
    T1:---------------- x3  t1:------------o---
    T2:----------------     t2:----------------
    Ch:----------------     ch:----------------
    B :o—-o-o--o—-o-o--     B :o—-o-o—-o—-o-o—-
    
    ...Por agua...          ...bylcreem...
                            fill
       1   2   3   4           1   2   3   4
    C :X---------------     C :---------
  • +
    ¡Colabora con nosotros!
    Envíanos tu versión de esta canción
  • Tutorial
    HD
    Como tocar Nene de Antes de Divididos INTRO
    8:00
  • Tutorial
    HD
    Como tocar Nene de Antes de Divididos VERSO Y ESTRIBILLO
    13:41
  • Tutorial
    HD
    Como tocar Nene de Antes de Divididos DEMO / COVER
    4:50

Letra de Nene de antes
Peine cardenales bajo el chaparron
aves raras de un pasado por agua
otra vez al brylcreem, yeeh
Ponele las ventosas al hombre invisible
que el chiflete debajo de la puerta
no para de sonar, yeeeh

Nene de antes
Con un cuatro en braguetas
nene de antes
con un diez en resaca
Balcon de inconclusa serenata fue
busco cama, vacaciones y llanto
el turista mortal, yeeh
Sudaba como una ballena en ascensor
a la consejera de la locura
se le fruncio el frances
Estribillo
Peine...
Estribillo




[Nene de antes chords][Nene de antes cifra]
© LaCuerda.net · aviso legal · privacidad · es · en · pt · contacto