Acordes de Guitarra » D »Divididos » Guanuqueando (Tab)

Guanuqueando
Divididos

Letras, Acordes y Tabs para Guitarra, Bajo y Ukulele

  •    F#m*             C#m                  D              A
    1--5-----5-|-7--9----4-------4---|-2------2--4--5-|-0---------|
    2----2-----|-----------5---5---5-|---3------------|---3-2---2-|
    3------2---|------------6--------|----2-----------|-------2---|
    4----------|---------------------|-0------0--0----|-----------|
    5--------4-|-6--7----4-----------|----------------|-0---0-----|
    6--1-------|---------------------|----------------|-----------|
    
         Bm             A           G              E               A
    1---------2--|------------|-----------3|-----------0----|------------|
    2--3--3-5----|---2--0-----|--------0---|----0--2-3-0----|---2--0-----|
    3------------|---------2--|------0-----|----------------|---------2--|
    4------------|------------|------------|----------------|------------|
    5--2--2-2-2--|---0--0--0--|------------|----------------|---0--0--0--|
    6------------|------------|-0-2-3------|----0------0----|------------|
    
    
    E  D  E E7   C#7  D  E  D D7  Dm Dm6  A   X2
    
       F#m*                 C#m
    
  • F#m  E  D  A  Bm  A  G   E  A   X2
    
    E  D  E     C#     D  E  D      Dm    A   X2
    
       F#m                  E
    Verteros de labios quebrados
        D                 A
    zampoñias y quenas sonando
      Bm                   A
    antiguo respiro en la boca
      G   E              A
    besos, besos de mi raza
       F#m                    E
    perdido en la noche el silencio
        D                    A
    la tarde que se hace distancia
        Bm                      A
    misterios que el tiempo descifra
    G   E               A
    ése, ése es su respiro
    
  • e --5------7------9----10--10--10------10--10------14--14-----7--7---4/--5/--7
    B ---5------7------------10--10------9---9-------12--12------7--6-----4/--5/--
    G ----------------------------------------------------------------------------
    D --4------6------8----9-----------9-----------12-----------6--------3/--4/--6
    A ----------------------------------------------------------------------------
    E ----------------------------------------------------------------------------
    
    
    después el charango hace esto, lo saque con la guitarra acústica y sonaba bien
    
    e -17-17-17---21--17-16---21---16-14--16-16/17---12-10-9---10--12--12/14
    B ---------------------------------------------------------------
    G ---------------------------------------------------------------
    D ---------------------------------------------------------------
    A ---------------------------------------------------------------
    E ---------------------------------------------------------------
    
    SIGUE ACÁ
        ( rapido )
    e --9p7-5h7-7/9-----5-7-9--10-10/12--------------------------------
    
  • Intro
    PD: / deslizar
         w rash rapido
         * rapido
    
    ---------------------------------------------14--14-------
    --10----12---14---15--15--15--12-15--15--12--12--------
    ----12----12----14---14--14---------13------------------
    ----------------------------------------------------------
    ----------------------------------------------------------
    ----------------------------------------------------------
    
    -------------------------
    ---12-/---11-/--10-------
    --11--/-10---/-9---------
    -------------------------
    -------------------------
    -------------------------
    
    ---17W21--17-16-21W--16-14--14-16-17-12-10-9---10-12--
    ----------------------------------------------------------
    ----------------------------------------------------------
    ----------------------------------------------------------
    ----------------------------------------------------------
    
    ---9*7*5*7*9----5-7-9-10-12---7-9-10---------17w---15w---------
    ------------------------------------9-10-------------------
    ----------------------
  • Armonica en Do C
    
    DEDICADA PARA VOS GISEL. 23 DE JULIO DE 2007
     __  __  __  __  __  __  __  __
    | _L| _L| _L| _L| _L| _L| _L| _L
    ||--||--||--||--||--||--||--||--|
    || /|| /|| /|| /|| /|| /|| /|| /|
    ||/ ||/ ||/ ||/ ||/ ||/ ||/ ||/ |
    ||--||--||--||--||--||--||--||--|
    ||  ||  ||  ||  ||  ||  ||  ||__| Bueno lo que se toca
    ||  ||  ||  ||  ||  ||  ||  |__|
    ||  ||  ||  ||  ||  ||  ||__| con la armonica es la melodia
    ||  ||  ||  ||  ||  ||  |__|
    ||  ||  ||  ||  ||  ||__| de la cancion, pero pueden haber
    ||  ||  ||  ||  ||  |__|
    ||  ||  ||  ||  ||__| variantes ya que con la zampoña,
    ||  ||  ||  ||  |__|
    ||  ||  ||  ||__| aparecen modificanciones y/o areglos, se
    ||  ||  ||  |__|
    ||  ||  ||__| puede partir desde esta transcripcion.
    ||  ||  |__|
    ||  ||__| La version esta sacada de "Vengo del Placard de Otro"
    ||  |__|
    ||__| en Vivo. Espero les guste!
    |__|
    
    Verteros de labios quebrados
      6  7  7  7  7 (8) 8 (7) 6
    zampoñas y quenas sonando
      5 (6)(6)(6)(6)(7) 7  6  5
    antiguo respiro en la boca
     (4)(
  • +
    ¡Colabora con nosotros!
    Envíanos tu versión de esta canción

Letra de Guanuqueando
Verteros de labios quebrados
zampoñias y quenas sonando
antiguo respiro en la boca
besos, besos de mi raza
perdido en la noche el silencio
la tarde que se hace distancia
misterios que el tiempo descifra
ése, ése es su respiro
Siento quenas que en el viento huyen
trayendo amores y silencios de las peñas
que encierran el sol en su corazón
Entre airampos de luna
samponias que en el viento huyen
en viaje buscando el cielo un cóndor va
como mi ser resucitará buscando la luz
Siento quenas que en el viento huyen
trayendo amores y silencios de las peñas
que encierran el sol en su corazón.
Fin en:
Acordes:




[Guanuqueando chords][Guanuqueando cifra]
© LaCuerda.net · aviso legal · privacidad · es · en · pt · contacto