Tablatura para Guitarra de Divididos: Guanuqueando
Conexión · Inscripción
Letras y Acordes
Pantalla Completa
Imprimir
Versión Texto
Añadir Favorito
Otras Versiones

Mostrar Diagramas
Desfile Automático
Manipular Acordes
Formato del Texto


Guanuqueando(TAB)

Divididos

calidad:
divi0704
AUTOR: R. Vilca, Graciela Volodarky
ALBUM: Vengo del Placard de Otro
Enviado por jesus
Intro
PD: / deslizar
     w rash rapido
     * rapido

---------------------------------------------14--14-------
--10----12---14---15--15--15--12-15--15--12--12--------
----12----12----14---14--14---------13------------------
----------------------------------------------------------
----------------------------------------------------------
----------------------------------------------------------

-------------------------
---12-/---11-/--10-------
--11--/-10---/-9---------
-------------------------
-------------------------
-------------------------

---17W21--17-16-21W--16-14--14-16-17-12-10-9---10-12--
----------------------------------------------------------
----------------------------------------------------------
----------------------------------------------------------
----------------------------------------------------------

---9*7*5*7*9----5-7-9-10-12---7-9-10---------17w---15w---------
------------------------------------9-10-------------------
----------------------------------------------------------
----------------------------------------------------------
----------------------------------------------------------
Este fichero es trabajo propio de su transcriptor y representa su interpretación personal de la canción. El material contenido en esta página es
para exclusivo uso privado, por lo que se prohibe su reproducción o retransmisión, así como su uso para fines comerciales.

© LaCuerda.net · Aviso Legal · Privacidad