Tablatura para Guitarra de Divididos: Guanuqueando
Conexión · Inscripción
Letras y Acordes
Pantalla Completa
Imprimir
Versión Texto
Añadir Favorito
Otras Versiones

Mostrar Diagramas
Desfile Automático
Manipular Acordes
Formato del Texto


Guanuqueando(TAB)

Divididos

calidad:
divi0705
AUTOR: R. Vilca, Graciela Volodarky
ALBUM: Vengo del Placard de Otro
Enviado por exequiel
Esta es la intro,es fácil y para mi esta muy bien


e --5------7------9----10--10--10------10--10------14--14-----7--7---4/--5/--7
B ---5------7------------10--10------9---9-------12--12------7--6-----4/--5/--
G ----------------------------------------------------------------------------
D --4------6------8----9-----------9-----------12-----------6--------3/--4/--6
A ----------------------------------------------------------------------------
E ----------------------------------------------------------------------------


después el charango hace esto, lo saque con la guitarra acústica y sonaba bien

e -17-17-17---21--17-16---21---16-14--16-16/17---12-10-9---10--12--12/14
B ---------------------------------------------------------------
G ---------------------------------------------------------------
D ---------------------------------------------------------------
A ---------------------------------------------------------------
E ---------------------------------------------------------------

SIGUE ACÁ
    ( rapido )
e --9p7-5h7-7/9-----5-7-9--10-10/12--------------------------------
B ----------------------------------12--14-14/15----9-9h10---------
G -----------------------------------------------------------------
D -----------------------------------------------------------------
A -----------------------------------------------------------------
E -----------------------------------------------------------------

eso es todo, espero que este bien saludos !
Este fichero es trabajo propio de su transcriptor y representa su interpretación personal de la canción. El material contenido en esta página es
para exclusivo uso privado, por lo que se prohibe su reproducción o retransmisión, así como su uso para fines comerciales.

© LaCuerda.net · Aviso Legal · Privacidad